» » »

*Blink 182*, Boxing Day Tabs (ver.1)

Artists:  A B C D E F G H I J K L M N O P Q R S T U V W X Y Z # 

Boxing Day Tabs (ver.1)

*Blink 182* Tabs
 Rating:
4/5 (4 votes)
Boxing Day lessons Tabs too difficult? Try these video lessons and learn fast
                Intro 1
E]------------------------------------------------------------------|
B]---3----------------3------1--------------------1p0---------------|
G]----------0--------------------------2--2--------------2----------|
D]------------------------------------------------------------------|
A]-----------------------------0------------------------------------|
E]---3----------3---------------------------------------------------|       x4
Intro 2/Verse/Solo  ( 1 long 2 short beats  x4 each)
E]---x----x-------x----------------|
B]---3----3-------3---------6/7----|
G]--------------------------4/5----|
D]---------------------------------|
A]---x-----x------2----------------|
E]---3-----2-----------------------|
Pre (1 long 2 short beats  x8 each) x2
E]-----------------------------|
B]---3------4-----------4------|
G]----------2-----------2------|
D]---------------4-------------|
A]---------------2-------------|
E]---3-------------------------|
Chorus (x8 each)
E]---x-------x-------x-----x--|
B]---3-------3-------3-----3--|
G]----------------------------|
D]----------------------------|
A]-----------3-------2-----3--|
E]---3-------x-------x-----x--|
Outro (1 long 2 short beat  x2 each)
E]---------------------------------------------|
B]------------------------------------6/7------|
G]---0------0-----0------P.M----------4/5------|
D]---0------0-----0------P.M-------------------|
A]---10-----9-----7------P.M-------------------|
E]---------------------------------------------|
            
Submit corrections

comments powered by Disqus
↑ Back to top | *Blink 182* Tabs for Boxing Day. Lyrics for acoustic guitar and electric guitar. Tablatures and chords are parodies/interpretations of the original songs. You may use it for private study, scholarship, research or language learning purposes only