» » »

*Blink 182*, Boxing Day Tabs (ver.3)

Artists:  A B C D E F G H I J K L M N O P Q R S T U V W X Y Z # 

Boxing Day Tabs (ver.3)

*Blink 182* Tabs
 Rating:
4/5 (4 votes)
Boxing Day lessons Tabs too difficult? Try these video lessons and learn fast
1
                This is a pretty accurate tab of Boxing Day, the brand new 2012 song by blink-182. The 
intro is only preliminary as I need to work it out a bit better. Timings are difficult to 
tab but easy to play so if you need help with timings you can find my cover here


Have fun!

-------------------------------------------------------------------------------
                             Boxing Day - blink-182
-------------------------------------------------------------------------------

Tuning: Standard

Finger-picked Intro

e|---------------------------------------------------------------------------|
B|--3-----3--1-----1p0-------------------------------------------------------|
G|--0-----0--0-----0---------------------------------------------------------|
D|---------------------------------------------------------------------------|
A|---------------------------------------------------------------------------|
E|--3--3--------3------------------------------------------------------------|


Intro Cont./Verse
e|---------------------------------------------------------------------------|
B|------3----3---3----3----3-------------------------------------------------|
G|------0----0---0----0----0-------------------------------------------------|
D|------0----0---0----0----0-------------------------------------------------|
A|-------------0-----------3-------------------------------------------------|
E|--3-----2---------0--------------------------------------------------------|

Pre Chorus 'It's sad...'
e|------------------------------|--------------------------------------------|
B|--3----3----3----3------------|------3----3----3----3----------------------|
G|--0----2----0----0------------|------0----0----0----0----------------------|
D|--0----0----0----0------------|------0----0----0----0----------------------|
A|------------2----3------------|----------------2----3----------------------|
E|--3---------0-----------------|------3----2----0---------------------------|
In the video I play it the           But this way also works depending on
above way                            which you prefer


Chorus 'I'm empty...'
e|-----------------------------|---------------------------------------------|
B|--3----3----3----3-----------|-------3----3----3----3----------------------|
G|--0----0----0----0-----------|-------0----0----0----0----------------------|
D|--0----0----0----0-----------|-------0----0----0----0----------------------|
A|-------3----2----3-----------|------------3---------3----------------------|
E|--3---------0----------------|-------3---------3---------------------------|
Again, I play it the above            But this also works and closely follows
way in the video                      the bass line


Pre-Verse (1:37 in the video) Guitar 1
e|---------------------------------------------------------------------------|
B|--3----3----3----3---------------------------------------------------------|
G|--0----0----0----0---------------------------------------------------------|
D|--0----0----0----0---------------------------------------------------------|
A|------------2----3---------------------------------------------------------|
E|--3----2----0--------------------------------------------------------------|

Guitar 2 (This little riff also repeats all throughout the song if you listen closely. 
Again, not entirely sure on this part, but again, it works)

e|---------------------------------------------------------------------------|
B|--------------------12--13--12---------------------------------------------|
G|--12----12----12-----------------------------------------------------------|
D|--------------------9---10---9---------------------------------------------|
A|--10----9-----7------------------------------------------------------------|
E|---------------------------------------------------------------------------|
                      This little bit is quickly slid back and forth

Verse

Pre-Chorus

Chorus

Bridge (same as verse)

Chorus (I like to let the chords ring for the first half)

End on G

Thanks!

************************************

| /   slide up
| \   slide down
| h   hammer-on
| p   pull-off
| ~   vibrato
| +   harmonic
| x   Mute note
| b   Bend
| pb  Pre-bend
| br  Bend release
| pbr Pre-bend release
| brb Bend release bend

************************************
            
Submit corrections

comments powered by Disqus
↑ Back to top | *Blink 182* Tabs for Boxing Day. Lyrics for acoustic guitar and electric guitar. 1 Tablatures and chords are parodies/interpretations of the original songs. You may use it for private study, scholarship, research or language learning purposes only