» » »

*Blink 182*, Ben Wah Balls Tabs (ver.6)

Artists:  A B C D E F G H I J K L M N O P Q R S T U V W X Y Z # 

Ben Wah Balls Tabs (ver.6)

*Blink 182* Tabs
Rating:
0/5 (0 votes)
Ben Wah Balls lessons Tabs too difficult? Try these video lessons and learn fast
                Intro
e|--------------------------------------------------------|
B|--------------------------------------------------------|
G|--------------------------------------------------------|
D|44444-------44444--------44444--------44444-------------|
A|55555-55555-55555-xx7xx7-55555-xx7xx7-55555-5~----------|
E|------33333-------xx5xx5-------xx5xx5-------3~----------|

RIFF 
e|-15(X3)14(X3)--------14(X3)15(X3)------15((X3)14(X3)----| 
B|--------------15(X7)-------------15(X7)-------------1515| 
G|--------------------------------------------------------| 
D|--------------------------------------------------------| 
A|--------------------------------------------------------| 
E|--------------------------------------------------------| 

e|------------1414141515151414151514----------------------| 
B|-1515151515------------------------15-------------------| 
G|--------------------------------------------------------| 
D|--------------------------------------------------------| 
A|--------------------------------------------------------| 
E|--------------------------------------------------------|

Chorus
e|--------------------------------------------------------|
B|--------------------------------------------------------|
G|-77777-------77777--------------------------------------|
D|-77777-55555-55555-77777-55555--------------------------|
A|-55555-33333-55555-55555-33333--------------------------|
E|-------33333-------55555-33333--------------------------|
                           .PM..

riff2 (distorted)
e|--------------------------------------------------------|
B|--------------------------------------------------------|
G|--------------------------------------------------------|
D|----0h7p5-----0h4p5---reapeat until tom starts singing--|
A|-555------555-------------------------------------------|
E|--------------------------------------------------------|

Play this when Tom starts singing
e|--------------------------------------------------------|
B|--------------------------------------------------------|
G|-9--9---9-9--7-7--9-9-----------------------------------|
D|-11-11--7-7--5-5--7-7-----------------------------------|
A|--------------------------------------------------------|
E|--------------------------------------------------------|

Solo (distorted)
e|---------------------------------------------------------|
B|---------------------------------------------------------|
G|---------------------------------------------------------|
D|---------------------------------------------------------|
A|-5(~)-4--7--5--4--------7--4--5(~)-----------------------|
E|------------------5--5-----------------------------------|

Clean guitar part
e|-----------------------------------------------------------|
B|-----------------------------------------------------------|
G|-----------------------------------------------------------|
D|4445450-----4-4------7-7------7-7-5-4------4-5-4-0---77--44|
A|---------555-5-5--555-5-5--555-5-----5--555--------55--55-|
E|----------------------------------------------------------|

'She said when i was a little girl....'(palm muted)
e|---------------------------------------------------------|
B|---------------------------------------------------------|
G|---------------------------------------------------------|
D|--7777---------------------------------------------------|
A|--5555-5555-7777-5555------------------------------------|
E|-------3333-5555-3333------------------------------------|

 
RIFF 
e|-15(X3)14(X3)--------14(X3)15(X3)------15((X3)14(X3)----| 
B|--------------15(X7)-------------15(X7)-------------1515| 
G|--------------------------------------------------------| 
D|--------------------------------------------------------| 
A|--------------------------------------------------------| 
E|--------------------------------------------------------| 

e|------------1414141515151414151514----------------------| 
B|-1515151515------------------------15-------------------| 
G|--------------------------------------------------------| 
D|--------------------------------------------------------| 
A|--------------------------------------------------------| 
E|--------------------------------------------------------|
            

comments powered by Disqus
↑ Back to top | *Blink 182* Tabs for Ben Wah Balls. Lyrics for acoustic guitar and electric guitar. Tablatures and chords are parodies/interpretations of the original songs. You may use it for private study, scholarship, research or language learning purposes only