>
 >
Ben Wah Balls 1

Ben Wah Balls 1 Guitar Tabs

*Blink 182* - Ben Wah Balls 1 chords, tabs, tablatures, lyrics

Guitar lessons | Add/correct | Request | Top 50 tabs Artists:  A B C D E F G H I J K L M N O P Q R S T U V W X Y Z 0-9

Ben Wah Balls 1 Guitar Tabs – *Blink 182*

CD, Sheet music, Poster

Do you like Ben Wah Balls 1? Share with your friends now
Bass TabsChordsTabsTabs v2Tabs v3Tabs v4Tabs v5

. = Palm Mute
^ = Upstroke
V = Downstroke

Intro
E|-------------------------------------------------------------------
B|-------------------------------------------------------------------
G|-------------------------------------------------------------------
D|-4-4-4-4--5-5-5-5--4-4-4-4--77-7-77-7--4-4-4-4--77-7-77-7-5-5-5-5-5 x1
A|-5-5-5-5--5-5-5-5--5-5-5-5--77-7-77-7--5-5-5-5--77-7-77-7-5-5-5-5-5
E|----------3-3-3-3-----------55-5-55-5-----------55-5-55-5-3-3-3-3-3
                              ..   ..             ..   ..

E|-151515-141414------------------141414-151515----------------------
B|---------------1515151515151515---------------1515151515151515-----
G|-------------------------------------------------------------------
D|------------------------------------------------------------------- x1
A|-------------------------------------------------------------------
E|-------------------------------------------------------------------

E|-151515-141414------------------141414-151515-14-14-15-14----------
B|---------------1515151515151515---------------------------15-------
G|-------------------------------------------------------------------
D|------------------------------------------------------------------- x1
A|-------------------------------------------------------------------
E|-------------------------------------------------------------------

E|-------------------------------------------------------------------
B|-------------------------------------------------------------------
G|-7-7-7-7-----------7-7-7-7---------7-7-7-7-------------------------
D|-7-7-7-7--5-5-5-5--7-7-7-7---------7-7-7-7----------5-5-5-5-5-5-5-5 x1
A|-5-5-5-5--5-5-5-5--5-5-5-5-9-9-7-7-5-5-5-5-9-9-7-7--5-5-5-5-5-5-5-5
E|----------3-3-3-3-----------------------------------3-3-3-3-3-3-3-3
                                                      . . . . . . . .

E|-------------------------------------------------------------------
B|-------------------------------------------------------------------
G|-------------------------------------------------------------------
D|---4---7-4----4---5-4----2----5-4-2-0----5----5-4-2-0-------------- x2
A|-5---5------2---2------0---0---------------------------------------
E|---------------------------------------3---3-----------------------

First Verse
E|----------7---7----5---5----3---3----------------------------------
B|-7---7----7---7----5---5----3---3----------------------------------
G|-7---7-------------------------------------------------------------
D|------------------------------------------------------------------- x1
A|-------------------------------------------------------------------
E|-------------------------------------------------------------------

E|----------7---7----5---5----3-3-3-3--------------------------------
B|-7---7----7---7----5---5----3-3-3-3--------------------------------
G|-7---7-------------------------------------------------------------
D|------------------------------------------------------------------- x1
A|-------------------------------------------------------------------
E|-------------------------------------------------------------------

E|-------------------------------------------------------------------
B|-------------------------------------------------------------------
G|-7-7-7-7--4-4-4-4--------------------------------------------------
D|-7-7-7-7--4-4-4-4--7-7-7-7--5-5-5-5-------------------------------- x2
A|-5-5-5-5--2-2-2-2--7-7-7-7--5-5-5-5--------------------------------
E|-------------------5-5-5-5--3-3-3-3--------------------------------

OR

E|-5-5-5-5--7-7-7-7--5-5-5-5--3-3-3-3--------------------------------
B|-7-7-7-7--7-7-7-7--5-5-5-5--3-3-3-3--------------------------------
G|-7-7-7-7--8-8-8-8--6-6-6-6--4-4-4-4--------------------------------
D|-7-7-7-7--9-9-9-9--7-7-7-7--5-5-5-5-------------------------------- x2
A|-5-5-5-5--9-9-9-9--7-7-7-7--5-5-5-5--------------------------------
E|----------7-7-7-7--5-5-5-5--3-3-3-3--------------------------------

E|-------------------------------------------------------------------
B|-------------------------------------------------------------------
G|-7-7-7-7-----------7-7-7-7---------7-7-7-7-------------------------
D|-7-7-7-7--5-5-5-5--7-7-7-7---------7-7-7-7----------5-5-5-5-5-5-5-5 x1
A|-5-5-5-5--5-5-5-5--5-5-5-5-9-9-7-7-5-5-5-5-9-9-7-7--5-5-5-5-5-5-5-5
E|----------3-3-3-3-----------------------------------3-3-3-3-3-3-3-3
                                                      . . . . . . . .

Pre-Verse
E|-------------------------------------------------------------------
B|-------------------------------------------------------------------
G|-------------------------------------------------------------------
D|---4---7-4----4---5-4----2----5-4-2-0----5----5-4-2-0-------------- x2
A|-5---5------2---2------0---0---------------------------------------
E|---------------------------------------3---3-----------------------

Second Verse
E|----------7---7----5---5----3---3----------------------------------
B|-7---7----7---7----5---5----3---3----------------------------------
G|-7---7-------------------------------------------------------------
D|------------------------------------------------------------------- x1
A|-------------------------------------------------------------------
E|-------------------------------------------------------------------

E|----------7---7----5---5----3-3-3-3--------------------------------
B|-7---7----7---7----5---5----3-3-3-3--------------------------------
G|-7---7-------------------------------------------------------------
D|------------------------------------------------------------------- x1
A|-------------------------------------------------------------------
E|-------------------------------------------------------------------

E|-------------------------------------------------------------------
B|-------------------------------------------------------------------
G|-7-7-7-7--4-4-4-4--------------------------------------------------
D|-7-7-7-7--4-4-4-4--7-7-7-7--5-5-5-5-------------------------------- x2
A|-5-5-5-5--2-2-2-2--7-7-7-7--5-5-5-5--------------------------------
E|-------------------5-5-5-5--3-3-3-3--------------------------------

OR

E|-5-5-5-5--7-7-7-7--5-5-5-5--3-3-3-3--------------------------------
B|-7-7-7-7--7-7-7-7--5-5-5-5--3-3-3-3--------------------------------
G|-7-7-7-7--8-8-8-8--6-6-6-6--4-4-4-4--------------------------------
D|-7-7-7-7--9-9-9-9--7-7-7-7--5-5-5-5-------------------------------- x2
A|-5-5-5-5--9-9-9-9--7-7-7-7--5-5-5-5--------------------------------
E|----------7-7-7-7--5-5-5-5--3-3-3-3--------------------------------

E|-------------------------------------------------------------------
B|-------------------------------------------------------------------
G|-7-7-7-7-----------7-7-7-7---------7-7-7-7-------------------------
D|-7-7-7-7--5-5-5-5--7-7-7-7---------7-7-7-7----------5-5-5-5-5-5-5-5 x1
A|-5-5-5-5--5-5-5-5--5-5-5-5-9-9-7-7-5-5-5-5-9-9-7-7--5-5-5-5-5-5-5-5
E|----------3-3-3-3-----------------------------------3-3-3-3-3-3-3-3
                                                      . . . . . . . .

Bridge
E|-------------------------------------------------------------------
B|-------------------------------------------------------------------
G|-7~~~~-7--6--2--0~~~~--7/9--6--7~~---------------------------------
D|-0~~~~-0--0~~~~~~~~~~~~~~~~~~~~~~~--------------------------------- x1
A|-------------------------------------------------------------------
E|-------------------------------------------------------------------

E|-------------------------------------------------------------------
B|-------------------------------------------------------------------
G|-------------------------------------------------------------------
D|-5-4-2--5-4-2-0----4-----7-4----4-----5-4----2-----5-4-2-0--------- x1
A|-----------------5---5-5------2---2-2------0---0-0-----------------
E|-------------------------------------------------------------------

E|-------------------------------------------------------------------
B|-------------------------------------------------------------------
G|-------------------------------------------------------------------
D|---5-----5-4-2-0--------------------------------------------------- x1
A|-------------------------------------------------------------------
E|-3---3-3-----------------------------------------------------------

E|-------------------------------------------------------------------
B|-------------------------------------------------------------------
G|-------------------------------------------------------------------
D|---4-----7-4----4-----5-4----2-----5-4-2-0----5-----5-4-2-0-------- x1
A|-5---5-5------2---2-2------0---0-0---------------------------------
E|--------------------------------------------3---3-3----------------

E|-------------------------------------------------------------------
B|-------------------------------------------------------------------
G|-77-7-----44-4-----------------------------------------------------
D|-77-7-----44-4-----77-7-----55-5----------------------------------- x4
A|-55-5-----22-2-----77-7-----55-5-----------------------------------
E|-------------------55-5-----33-3-----------------------------------
   V^ V     V^ V     V^ V     V^ V

E|-------------------------------------------------------------------
B|-------------------------------------------------------------------
G|-7-7-7-7-7-7-7-7--4-4-4-4-4-4-4-4----------------------------------
D|-7-7-7-7-7-7-7-7--4-4-4-4-4-4-4-4--7-7-7-7-7-7-7-7--5-5-5-5-5-5-5-5 x2
A|-5-5-5-5-5-5-5-5--2-2-2-2-2-2-2-2--7-7-7-7-7-7-7-7--5-5-5-5-5-5-5-5
E|-----------------------------------5-5-5-5-5-5-5-5--3-3-3-3-3-3-3-3
   . . . . . . . .  . . . . . . . .  . . . . . . . .  . . . . . . . .

Ending
E|-------------------------------------------------------------------
B|-------------------------------------------------------------------
G|-------------------------------------------------------------------
D|------------------------------------------------------------------- x4
A|-9-10-12-10-9--7--12-10-9------------------------------------------
E|-------------------------------------------------------------------

E|-151515-141414------------------141414-151515----------------------
B|---------------1515151515151515---------------1515151515151515-----
G|-------------------------------------------------------------------
D|------------------------------------------------------------------- x1
A|-------------------------------------------------------------------
E|-------------------------------------------------------------------

E|-151515-141414------------------141414-151515-14-14-15-14----------
B|---------------1515151515151515---------------------------15-------
G|-------------------------------------------------------------------
D|------------------------------------------------------------------- x1
A|-------------------------------------------------------------------
E|-------------------------------------------------------------------

End On
E|-------------------------------------------------------------------
B|-------------------------------------------------------------------
G|-7~~~~-------------------------------------------------------------
D|-7~~~~------------------------------------------------------------- x1
A|-5~~~~-------------------------------------------------------------
E|-------------------------------------------------------------------





Comments


Popular *Blink 182* tabs & chords
Action 2 Bass Tabs
Don't Tell Me It's Over 2 Bass Tabs
Marlboro Man Bass Tabs
Enthused Chords
15 Yellow Version Tabs
1st Date Tabs
All The Small Things 2 Tabs
Anthem 3 Tabs
M Ms Tabs
Take Your Pants Off Tabs


Song lyrics



↑ Back to top | Tablatures and chords are parodies/interpretations of the original songs. You may use it for private study, scholarship, research or language learning purposes only
© 2014 AZChords.com Contact us | Privacy policy | DMCA | Add/correct tabs | Request tabs | Top 50 tabs