» » »

*Blink 182*, Ben Wah Balls Tabs (ver.3)

Artists:  A B C D E F G H I J K L M N O P Q R S T U V W X Y Z # 

Ben Wah Balls Tabs (ver.3)

*Blink 182* Tabs
 Rating:
4/5 (4 votes)
Ben Wah Balls lessons Tabs too difficult? Try these video lessons and learn fast
1
                -------------------------------------------------------------------------------
                             BEN WAH BALLS - Blink 182
-------------------------------------------------------------------------------

Album:Cheshire Cat
This is one of my favourite songs it's a pity they never played it live. For 
the order listen to the cd. 

INTRO
e|---------------------------------------------------------------------------|
B|---------------------------------------------------------------------------|
G|---------------------------------------------------------------------------|
D|-4-4-4-4-4-4-4---------------4-4-4-4-4-4-4-----------4-4-4-4-4-4-4---------|
A|-5-5-5-5-5-5-5-5-5-5-5-5-5-5-5-5-5-5-5-5-5-77-7-77-7-5-5-5-5-5-5-5---------|
E|---------------3-3-3-3-3-3-3---------------55-5-55-5-----------------------|
pm                                           ..   ..

e|---------------------------------------------------------------------------|
B|---------------------------------------------------------------------------|
G|---------------------------------------------------------------------------|
D|---------------------------------------------------------------------------|
A|-77-7-77-7-5-5-5-5-5-5-5---------------------------------------------------|
E|-55-5-55-5-3-3-3-3-3-3-3---------------------------------------------------|
pm ..   ..

RIFF
e|-151515141414----------------141414151515----------------151515141414------|
B|--------------15151515151515--------------15151515151515--------------1515-|
G|---------------------------------------------------------------------------|
D|---------------------------------------------------------------------------|
A|---------------------------------------------------------------------------|
E|---------------------------------------------------------------------------|

e|------------1414141515151414151514-----------------------------------------|
B|-1515151515------------------------15--------------------------------------|
G|---------------------------------------------------------------------------|
D|---------------------------------------------------------------------------|
A|---------------------------------------------------------------------------|
E|---------------------------------------------------------------------------|

CHORUS
e|---------------------------------------------------------------------------|
B|---------------------------------------------------------------------------|
G|-7-7-7-7-7---------7-7-7-7-7-----------7-7-7-7-7---------------------------|
D|-7-7-7-7-7-5-5-5-5-7-7-7-7-7-77-7-77-7-7-7-7-7-7-77-7-77-7-5-5-5-5-5--2X---|
A|-5-5-5-5-5-5-5-5-5-5-5-5-5-5-77-7-77-7-5-5-5-5-5-77-7-77-7-5-5-5-5-5-------|
E|-----------3-3-3-3-----------55-5-55-5-----------55-5-55-5-3-3-3-3-3-------|
pm.                            ..   ..             ..   .. 

RIFF 2 (slightly palm muted)
e|---------------------------------------------------------------------------|
B|---------------------------------------------------------------------------|
G|---------------------------------------------------------------------------|
D|--4--7-4---4--5-4---2--5420--5--5420-----2X--------------------------------|
A|-5-55-5-5-2-22-2-2-0-00----------------------------------------------------|
E|----------------------------3-33-------------------------------------------|

VERSE (first part clean then distorted)
e|---------------------------------------------------------------------------|
B|---------------------------------------------------------------------------|
G|-------9-9-9-7-7-7-5-5-5---------7-7-7-------------------------------------|
D|-7-7-7-7-7-7-5-5-5-3-3-3---2X----7-7-7-9-9-9-7-7-7-5-5-5----2X-------------|
A|-5-5-5---------------------------5-5-5-9-9-9-7-7-7-5-5-5-------------------|
E|---------------------------------------7-7-7-5-5-5-3-3-3-------------------|

SOLO
e|---------------------------------------------------------------------------|
B|---------------------------------------------------------------------------|
G|-7-7-7-6-----7/9-6-7-------------------------------------------------------|
D|-0-------7-5---------------------------------------------------------------|
A|---------------------------------------------------------------------------|
E|---------------------------------------------------------------------------|

RIFF 3 (clean)
e|---------------------------------------------------------------------------|
B|---------------------------------------------------------------------------|
G|---------------------------------------------------------------------------|
D|-542-5420------4--7-4---4--5-4---2--5420--5--5420-----2X-------------------|
A|--------------5-55-5-5-2-22-2-2-0-00---------------------------------------|
E|-----------------------------------------3-33------------------------------|

WAH WAH PART (clean & palm muted)
e|---------------------------------------------------------------------------|
B|---------------------------------------------------------------------------|
G|-7-7-7-7-------------------------------------------------------------------|
D|-7-7-7-7-9-9-9-9-7-7-7-7-5-5-5-5-------2X----------------------------------|
A|-5-5-5-5-9-9-9-9-7-7-7-7-5-5-5-5-------------------------------------------|
E|---------7-7-7-7-5-5-5-5-3-3-3-3-------------------------------------------|

RIFF 5
e|---------------------------------------------------------------------------|
B|---------------------------------------------------------------------------|
G|---------------------------------------------------------------------------|
D|-0-4-00-7-5-4-0--5-4-04-00-7-5-4-0-5-4-2-0-----2X--------------------------|
A|---------------------------------------------------------------------------|
E|---------------------------------------------------------------------------|

===============================================================================
            
Submit corrections

comments powered by Disqus
↑ Back to top | *Blink 182* Tabs for Ben Wah Balls. Lyrics for acoustic guitar and electric guitar. 1 Tablatures and chords are parodies/interpretations of the original songs. You may use it for private study, scholarship, research or language learning purposes only