» » »

*Blink 182*, Ben Wah Balls Tabs (ver.1)

Artists:  A B C D E F G H I J K L M N O P Q R S T U V W X Y Z # 

Ben Wah Balls Tabs (ver.1)

*Blink 182* Tabs
 Rating:
4/5 (4 votes)
Ben Wah Balls lessons Tabs too difficult? Try these video lessons and learn fast
1
                INTRO:
D|-444444-555555-444444-XX7XX7-44444-XX7XX7------------------|
A|-555555-555555-555555-XX7XX7-55555-XX7XX7------------------|
E|--------333333--------XX5XX5-------XX5XX5------------------|

INTRO SOLO:
E|-151515-141414------------141414-151515------------151515--|
B|---------------1515151515---------------1515151515---------|

E|-141414------------141414-151515-14-14-15-14---------------|
A|--------1515151515--------------------------15-------------|

G|-77777-------77777---------777777--------------------------|
D|-77777-55555-77777-444-222-777777-444-222-----555555-------|
A|-55555-55555-55555---------555555-------------555555-------|
E|-------33333-------------------------------PM 333333-------|

G|-----------------------------------------------------------|
D|---4---7-5---4---5-4---2---5s4s2p0---5---5s4s2p0-----------|
A|-5---5-----2---2-----0---0---------------------------------|
E|-----------------------------------3---3-------------------|

VERSE:
|-5-7-5-3-------------------|
|-7-7-5-3-------------------|
|-7-8-6-4-------------------|
|-7-9-7-5-------------------|
|-5-9-7-5-------------------|
|---7-5-3-------------------|

POWER CHORDS (STRUM):
G|-7-4----------------------|
D|-7-4-7-5------------------|
A|-5-2-7-5------------------|
E|-----5-3------------------|

BREAK:
B|------------------------------|
G|-7-7-7-6-------7s9-6-7--------|
D|-0-0-0-0-7-5-4----------------|
A|------------------------------|


CLEAN PART:
G|-0-----0---------------2---0---------0---------------------|
D|---4-2---4-2-0---4-------------4-------4----2-----5-4-0-2--|
A|---------------5---5-5---5---2---2-2------0---0-0----------|
E|-----------------------------------------------------------|

CONT:
G|---------------------|
D|---5-----5-4-2-0-----|
A|---------------------|
E|-3---3-3-------------|

THE "WAH-WAH" PART! (PM'd):
E|---------------------------|
B|---------------------------|
G|---------------------------|
D|-77777-44444-22222---------|
A|-55555-22222-00000-55555---|
E|-------------------33333---|

LYRICS:
(No we ain't gonna take it unless it's from a doverman pincher 
Ladies and gentlemen, for your listening pleasure, Blink) 

Passively one day as the sun rose out of it's house 
So did this little old guy as he whistled out of his mouth 
And happily and gay 
Well I guessed exactly that 
Because he found a special girl 
That put him in a special trance 

He fell in love so quickly 
What the hell was he to expect 
That the girl under his arm wasn't the same 
As any other girl 
That he had thought that he once met 
I guess you could only blame fate 

Things started getting weird as they started to kiss 
She often felt his beard and remembered how her father she missed 
And then quietly one day 
He sang a song from deep within his heart 
Causing some ingestion 
He finished with a great big fart and 

She knew at that one moment 
That song was something she heard before 
So she asked him to do that again 

Then out the door they hurried 
She was gonna find out for sure 
So she an*lyzed his rear end 

She said, "When I was a little girl my dad left my mom. 
He used to always fart and sing this special song. 
Now I wasn't quite so sure until your pants did fall. 
'Cause now I know that your my dad because you use ben wah balls." 

I said a wah, wah, wah-wah-wah, 
Wah, wah-wah-wah, wah... 
I said a wah, wah, wah-wah-wah, 
Wah, wah-wah-wah, wah... 

there! i tanscribed this tab from loads of different versions i found
   on other sites & added some of my own in it! i pretty sure this 
                version is almost 100% accurate!!! :)
            
Submit corrections

comments powered by Disqus
↑ Back to top | *Blink 182* Tabs for Ben Wah Balls. Lyrics for acoustic guitar and electric guitar. 1 Tablatures and chords are parodies/interpretations of the original songs. You may use it for private study, scholarship, research or language learning purposes only