» » »

Ben Wah Balls Tabs (ver.5)

Artists:  A B C D E F G H I J K L M N O P Q R S T U V W X Y Z # 

Ben Wah Balls Tabs (ver.5)

*Blink 182*
Rating:
0/5 (0 votes)

Hard to play? Try these video lessons and learn fast.
                
. = Palm Mute
U = Upstroke
D = Downstroke

Intro
E|-------------------------------------------------------------------|
B|-------------------------------------------------------------------|
G|-------------------------------------------------------------------|
D|-4-4-4-4--5-5-5-5--4-4-4-4--77-7-77-7--4-4-4-4--77-7-77-7----------| x1
A|-5-5-5-5--5-5-5-5--5-5-5-5--77-7-77-7--5-5-5-5--77-7-77-7----------|
E|----------3-3-3-3-----------55-5-55-5-----------55-5-55-5----------|
                              ..   ..             ..   ..

E|-------------------------------------------------------------------|
B|-------------------------------------------------------------------|
G|-------------------------------------------------------------------|
D|-5-5-5-5-5-5-5-5---------------------------------------------------| x1
A|-5-5-5-5-5-5-5-5---------------------------------------------------|
E|-3-3-3-3-3-3-3-3---------------------------------------------------|


E|-151515-141414------------------141414-151515----------------------|
B|---------------1515151515151515---------------1515151515151515-----|
G|-------------------------------------------------------------------|
D|-------------------------------------------------------------------| x1
A|-------------------------------------------------------------------|
E|-------------------------------------------------------------------|

E|-151515-141414------------------141414-151515-14-14-15-14----------|
B|---------------1515151515151515---------------------------15-------|
G|-------------------------------------------------------------------|
D|-------------------------------------------------------------------| x1
A|-------------------------------------------------------------------|
E|-------------------------------------------------------------------|

E|---------------------------------------------------------------------|
B|---------------------------------------------------------------------|
G|-7-7-7-7-----------7-7-7-7---------7-7-7-7---------------------------|
D|-7-7-7-7--5-5-5-5--7-7-7-7---------7-7-7-7----------5-5-5-5-5-5-5-5--| x1
A|-5-5-5-5--5-5-5-5--5-5-5-5-999-777-5-5-5-5-999-777--5-5-5-5-5-5-5-5--|
E|----------3-3-3-3-----------------------------------3-3-3-3-3-3-3-3--|
                                                      . . . . . . . .

E|-------------------------------------------------------------------|
B|-------------------------------------------------------------------|
G|-------------------------------------------------------------------|
D|---4---7-4----4---5-4----2----5-4-2-0----5----5-4-2-0--------------| x1
A|-5---5------2---2------0---0---------------------------------------|
E|---------------------------------------3---3-----------------------|

E|-------------------------------------------------------------------|
B|-------------------------------------------------------------------|
G|-------------------------------------------------------------------|
D|---4---7-4---9----5-4----2----5-4-2-0----5----5-4-2-0--------------| x1
A|-5---5----------2------0---0---------------------------------------|
E|---------------------------------------3---3-----------------------|

First Verse
E|----------7---7----5---5----3---3----------------------------------|
B|-7---7----7---7----5---5----3---3----------------------------------|
G|-7---7-------------------------------------------------------------|
D|-------------------------------------------------------------------| x1
A|-------------------------------------------------------------------|
E|-------------------------------------------------------------------|

E|----------7---7----5---5----3-3-3-3--------------------------------|
B|-7---7----7---7----5---5----3-3-3-3--------------------------------|
G|-7---7-------------------------------------------------------------|
D|-------------------------------------------------------------------| x1
A|-------------------------------------------------------------------|
E|-------------------------------------------------------------------|

E|---------------------------------------------------------------------|
B|---------------------------------------------------------------------|
G|-7-7-7-7-------------------------------------------------------------|
D|-7-7-7-7--9-9-9-9--7-7-7-7--5-5-5-5----------------------------------| x2
A|-5-5-5-5--9-9-9-9--7-7-7-7--5-5-5-5----------------------------------|
E|----------7-7-7-7--5-5-5-5--3-3-3-3----------------------------------|

E|---------------------------------------------------------------------|
B|---------------------------------------------------------------------|
G|-7-7-7-7-----------7-7-7-7---------7-7-7-7---------------------------|
D|-7-7-7-7--5-5-5-5--7-7-7-7---------7-7-7-7----------5-5-5-5-5-5-5-5--| x1
A|-5-5-5-5--5-5-5-5--5-5-5-5-999-777-5-5-5-5-999-777--5-5-5-5-5-5-5-5--|
E|----------3-3-3-3-----------------------------------3-3-3-3-3-3-3-3--|
                                                      . . . . . . . .

Pre-Verse
E|-------------------------------------------------------------------|
B|-------------------------------------------------------------------|
G|-------------------------------------------------------------------|
D|---4---7-4----4---5-4----2----5-4-2-0----5----5-4-2-0--------------| x2
A|-5---5------2---2------0---0---------------------------------------|
E|---------------------------------------3---3-----------------------|

Second Verse
E|----------7---7----5---5----3---3----------------------------------|
B|-7---7----7---7----5---5----3---3----------------------------------|
G|-7---7-------------------------------------------------------------|
D|-------------------------------------------------------------------| x1
A|-------------------------------------------------------------------|
E|-------------------------------------------------------------------|

E|----------7---7----5---5----3-3-3-3--------------------------------|
B|-7---7----7---7----5---5----3-3-3-3--------------------------------|
G|-7---7-------------------------------------------------------------|
D|-------------------------------------------------------------------| x1
A|-------------------------------------------------------------------|
E|-------------------------------------------------------------------|

E|---------------------------------------------------------------------|
B|---------------------------------------------------------------------|
G|-7-7-7-7-------------------------------------------------------------|
D|-7-7-7-7--9-9-9-9--7-7-7-7--5-5-5-5----------------------------------| x2
A|-5-5-5-5--9-9-9-9--7-7-7-7--5-5-5-5----------------------------------|
E|----------7-7-7-7--5-5-5-5--3-3-3-3----------------------------------|

E|---------------------------------------------------------------------|
B|---------------------------------------------------------------------|
G|-7-7-7-7-----------7-7-7-7---------7-7-7-7---------------------------|
D|-7-7-7-7--5-5-5-5--7-7-7-7---------7-7-7-7----------5-5-5-5-5-5-5-5--| x1
A|-5-5-5-5--5-5-5-5--5-5-5-5-999-777-5-5-5-5-999-777--5-5-5-5-5-5-5-5--|
E|----------3-3-3-3-----------------------------------3-3-3-3-3-3-3-3--|
                                                      . . . . . . . .

Bridge
E|----------------------------------------------------------------------|
B|----------------------------------------------------------------------|
G|----------------------------------------------------------------------|
D|-7~~~~-7-7-6-----7/9-6/7----------------------------------------------| x1
A|-0-----------7/5------------------------------------------------------|
E|----------------------------------------------------------------------|

E|-------------------------------------------------------------------|
B|-------------------------------------------------------------------|
G|-------------------------------------------------------------------|
D|-5-4-2--5-4-2-0----4-----7-4----4-----5-4----2-----5-4-2-0---------| x1
A|-----------------5---5-5------2---2-2------0---0-0-----------------|
E|-------------------------------------------------------------------|

E|-------------------------------------------------------------------|
B|-------------------------------------------------------------------|
G|-------------------------------------------------------------------|
D|---5-----5-4-2-0---------------------------------------------------| x1
A|-------------------------------------------------------------------|
E|-3---3-3-----------------------------------------------------------|

E|-------------------------------------------------------------------|
B|-------------------------------------------------------------------|
G|-------------------------------------------------------------------|
D|---4-----7-4----4-----5-4----2-----5-4-2-0----5-----5-4-2-0--------| x1
A|-5---5-5------2---2-2------0---0-0---------------------------------|
E|--------------------------------------------3---3-3----------------|

E|-------------------------------------------------------------------|
B|-------------------------------------------------------------------|
G|-77-7--------------------------------------------------------------|
D|-77-7--99-9--------77-7-----55-5-----------------------------------| x4
A|-55-5--99-9--------77-7-----55-5-----------------------------------|
E|-------77-7--------55-5-----33-3-----------------------------------|


E|---------------------------------------------------------------------|
B|---------------------------------------------------------------------|
G|-7-7-7-7-7-7-7-7-----------------------------------------------------|
D|-7-7-7-7-7-7-7-7--9-9-9-9-9-9-9----7-7-7-7-7-7-7-7--5-5-5-5-5-5-5-5--| x2
A|-5-5-5-5-5-5-5-5--9-9-9-9-9-9-9----7-7-7-7-7-7-7-7--5-5-5-5-5-5-5-5--|
E|------------------7-7-7-7-7-7-7----5-5-5-5-5-5-5-5--3-3-3-3-3-3-3-3--|
   . . . . . . . .  . . . . . . . .  . . . . . . . .  . . . . . . . .

Ending
E|-------------------------------------------------------------------|
B|-------------------------------------------------------------------|
G|-------------------------------------------------------------------|
D|-------------------------------------------------------------------| x4
A|-9-10-12-10-9--7--12-10-9------------------------------------------|
E|-------------------------------------------------------------------|

E|-151515-141414------------------141414-151515----------------------|
B|---------------1515151515151515---------------1515151515151515-----|
G|-------------------------------------------------------------------|
D|-------------------------------------------------------------------| x1
A|-------------------------------------------------------------------|
E|-------------------------------------------------------------------|

E|-151515-141414------------------141414-151515-14-14-15-14----------|
B|---------------1515151515151515---------------------------15-------|
G|-------------------------------------------------------------------|
D|-------------------------------------------------------------------| x1
A|-------------------------------------------------------------------|
E|-------------------------------------------------------------------|

E|-151515-141414------------------141414-151515----------------------|
B|---------------1515151515151515---------------1515151515151515-----|
G|-------------------------------------------------------------------|
D|-------------------------------------------------------------------| x1
A|-------------------------------------------------------------------|
E|-------------------------------------------------------------------|

E|-151515-141414------------------141414-151515-14-14-15-14----------|
B|---------------1515151515151515---------------------------15-------|
G|-------------------------------------------------------------------|
D|-------------------------------------------------------------------| x1
A|-------------------------------------------------------------------|
E|-------------------------------------------------------------------|

End On
E|-------------------------------------------------------------------|
B|-------------------------------------------------------------------|
G|-7~~~~-------------------------------------------------------------|
D|-7~~~~-------------------------------------------------------------| x1
A|-5~~~~-------------------------------------------------------------|
E|-------------------------------------------------------------------|
            
Hard to play? Try these video lessons and learn fast. | Correct




comments powered by Disqus
↑ Back to top | Tablatures and chords are parodies/interpretations of the original songs. You may use it for private study, scholarship, research or language learning purposes only