» » »

Another Girl Another Planet Bass tabs (ver.2)

Artists:  A B C D E F G H I J K L M N O P Q R S T U V W X Y Z # 

Another Girl Another Planet Bass tabs (ver.2)

*Blink 182*
Rating:
0/5 (0 votes)

Hard to play? Try these video lessons and learn fast.
                                     ANOTHER GIRL ANOTHER PLANET (Bassline)
                            As recorded by Blink 182
                       (From the 2005 Album GREATEST HITS)

Words by Only Ones

Music by Blink 182

pretty close. I think this is the first blink 182 another girl another planet Bass

 Intro
  Q=180
                G
 4/4
  Gtr I
|---------|------------|------------|------------|--------|
|---------|------------|------------|------------|--------|
|---------|------------|------------|------------|--------|
|---------|-x-x-3------|-(3)--------|-(3)--------|-(3)----|


    B                 A                 B                 G
||------------------|-----------------|-----------------|-------------------||
||o-9-9-9-9-9-9-9-9-|-7-7-7-7-7-7-7-7-|-9-9-9-9-9-9-9-9-|-5-5-5-5-5-5-5-5--o||
||o-----------------|-----------------|-----------------|------------------o||
||------------------|-----------------|-----------------|-------------------||


    G            D                     E           C
                                                                           4x
||-----------------|-----------------|---------------|---------------------||
||o----------------|-----------------|---------------|--------------------o||
||o--------------5-|-(5)-5-5--5--5-5-|-7--7-7-7-5--3-|-(3)-3-3-3-3-3-2-0--o||
||--3--3-3-3-3-3---|-----------------|---------------|---------------------||


   Verse 1 + 2
    $
    G               D
||--------------------|---------------------|
||o-------------------|---------------------|
||o-----------3-(3)-5-|-5-5-5-5-3-(3)-5-(5)-|
||--3-3-3-3-3---------|---------------------|


  E               C
|-------------------|---------------------||
|-------------------|--------------------o||
|-7-7-7-7-7-(7)-5-3-|-(3)-3-3-3-3-2-0-3--o||
|-------------------|---------------------||


   Chorus
                                                         D.S.
    G           D                      E   C            E    D
||----------------|------------------|-------------|---------------||
||o---------------|------------------|-------------|--------------o||
||o-------------5-|-(5)-5-5-5-5-5-5--|-7---3-3---3-|-3--/7\--5----o||
||--3--3-3-3--3---|------------------|-------------|---------------||


 Interlude
  G                    D          C
|----------|---------|----------|------|
|----------|---------|----------|------|
|----------|---------|-5--------|-3----|
|-3--------|---------|----------|------|


    G            D                     E           C
                                                                           4x
||-----------------|-----------------|---------------|---------------------||
||o----------------|-----------------|---------------|--------------------o||
||o--------------5-|-(5)-5-5--5--5-5-|-7--7-7-7-5--3-|-(3)-3-3-3-3-3-2-0--o||
||--3--3-3-3-3-3---|-----------------|---------------|---------------------||


   Verse 3
    G            D                     E           C
||-----------------|-----------------|---------------|---------------------||
||o----------------|-----------------|---------------|--------------------o||
||o--------------5-|-(5)-5-5--5--5-5-|-7--7-7-7-5--3-|-(3)-3-3-3-3-3-2-0--o||
||--3--3-3-3-3-3---|-----------------|---------------|---------------------||


   Final Chorus
    G           D                      E   C            E    D
                                                                   4x
||----------------|------------------|-------------|---------------||
||o---------------|------------------|-------------|--------------o||
||o-------------5-|-(5)-5-5-5-5-5-5--|-7---3-3---3-|-3--/7\--5----o||
||--3--3-3-3--3---|------------------|-------------|---------------||


   Outro
    G            D
||-----------------|-----------------|
||o----------------|-----------------|
||o--------------5-|-(5)-5-5--5--5-5-|
||--3--3-3-3-3-3---|-----------------|


  E           C                             G
|---------------|--------------------||------------*|
|---------------|-------------------o||------------*|
|-7--7-7-7-5--3-|-(3)-3-3-3-3-3-2-0-o||------------*|
|---------------|--------------------||-x-x-3------*|


Hope its ok as i said im no bass player but it sounds orite on PTE
            
Hard to play? Try these video lessons and learn fast. | Correct




comments powered by Disqus
↑ Back to top | Tablatures and chords are parodies/interpretations of the original songs. You may use it for private study, scholarship, research or language learning purposes only