» » »

*Blink 182*, Another Girl Another Planet Bass tabs (ver.1)

Artists:  A B C D E F G H I J K L M N O P Q R S T U V W X Y Z # 

Another Girl Another Planet Bass tabs (ver.1)

*Blink 182* Tabs
 Rating:
4/5 (4 votes)
Another Girl Another Planet lessons Tabs too difficult? Try these video lessons and learn fast
                -------------------------------------------------------------------------------
			     Another girl another planet - Blink 182
-------------------------------------------------------------------------------


Tuning: standard

intro
G|---------------------------------------------------------------------------|
D|---------------------------------------------------------------------------|
A|---------------------------5555555577777-5-33333333------------------------|
E|---3(hold) --------33333333------------------------------------------------|

verse
G|---------------------------------------------------------------------------|
D|---------------------------------------------------------------------------|
A|----------5555555577777-5-33333333-----------------------------------------|
E|-33333333------------------------------------------------------------------|

chorus ("i think im on another world with you..")
G|---------------------------------------------------------------------------|
D|---------------------------------------------------------------------------|
A|------------5555555577773333-7-5-------------------------------------------|
E|---33333333----------------------------------------------------------------|

Marks singing bit
G|---------------------------------------------------------------------------|
D|------------9(hold)--7(hold)-----------------------------------------------|
A|------------7(hold)--5(hold)-----------------------------------------------|
E|---------------------------------------------------------------------------|

interlude
G|---------------------------------------------------------------------------|
D|---------------------------------------------------------------------------|
A|------------5555555577777-5-33333333---------------------------------------|
E|---33333333----------------------------------------------------------------|

(2nd)verse after tom's guitar solo thing
G|---------------------------------------------------------------------------|
D|-----------7777777799999-7-------------------------------------------------|
A|-----------5555555577777-5-33333333----------------------------------------|
E|--33333333-----------------------------------------------------------------|

outro (only use for the end of the song)
G|---------------------------------------------------------------------------|
D|---------------------------------------------------------------------------|
A|----------555555577777-5-33333333------------------------------------------|
E|--33333333------------------------3(end)-----------------------------------|


intro x 6
verse x 2
chorus x 2
verse x 2
chorus x 2
mark singing
interlude x 4
2nd verse x 2
chorus x 4
verse x 1
outro x 1
            
Submit corrections

comments powered by Disqus
↑ Back to top | *Blink 182* Bass for Another Girl Another Planet. Lyrics for acoustic guitar and electric guitar. Tablatures and chords are parodies/interpretations of the original songs. You may use it for private study, scholarship, research or language learning purposes only