» » »

*Blink 182*, Another Girl Another Planet Tabs (ver.1)

Artists:  A B C D E F G H I J K L M N O P Q R S T U V W X Y Z # 

Another Girl Another Planet Tabs (ver.1)

*Blink 182* Tabs
 Rating:
4/5 (4 votes)
Another Girl Another Planet lessons Tabs too difficult? Try these video lessons and learn fast
                This has got to be the best blink cover ever...
Please rate this tab....

ORIGINAL ARTIST: The Only Ones

Intro Part 1

Guitar 1
E -------------------------------------------------------------------------|
B -------------------------------------------------------------------------|
D -------------------------------------------------------------------------|
G ------5-(x8)--7-(x8)--9-(x5)--7-(x2)--5-(x8)-----------------------------|x2
A ------5-------5-------7-------5-------3----------------------------------|
E -------------------------------------------------------------------------|
All Palm Mute

Guitar 2- on second time ^ play this
E -------------------------------------------------------------------------|
B -------------------------------------------------------------------------|
G -------------------------------------------------------------------------|
D -xx-x-5~-----------------------------------------------------------------|
A -xx-x-5~-(let ring)------------------------------------------------------|x1
E -xx-x-3~-----------------------------------------------------------------|

Intro Part 2

Guitar 1
E -------------------------------------------------------------------------|
B -------------------------------------------------------------------------|
D -------------------------------------------------------------------------|
G ---5-(x8)--7-(x8)--9-(x5)--7-(x2)--5-(x8)--------------------------------|x2
A ---5-------5-------7-------5-------3-------------------------------------|
E -------------------------------------------------------------------------|
All Palm Mute

Guitar 2
E -------------------------------------------------------------------------|
B -------------------------------------------------------------------------|
G ---4-(x8)--2-(x8)--4-(x8)--5-(x8)---4-(x8)--2-(x8)--0-(x16)--------------|
D ---5-------5-------5-------5--------5-------5-------5--------------------|x1
A -------------------------------------------------------------------------|
E -------------------------------------------------------------------------|

Guitar 3
E -------------------------------------------------------------------------|
B -----listen hard to song cause it may help timing------------------------|
G ---------------^-difficult to hear---------------------------------------|
D ---5555-44-77-5555-44-55---(x4)------------------------------------------|
A -------------------------------------------------------------------------|
E -------------------------------------------------------------------------|
All Palm Mute

Intro Part 3

Guitar 1
E ------------------------------------------------------------------------|
B ------------------------------------------------------------------------|
G --------------------------------------------------457-7-5-4-0-00000~----|
D ----------------------------545457--5-5-5-457-7-7-7---------------------|
A -------55-5-55-35-7-7-7-5-3---------------------------------------------|
E --3-3-3-----------------------------------------------------------------|

Guitar 1 (CONTINUED)
E ------------------------------7---------10----7--------------------------------|
B ------8----10--8-7-8---8-8-10----8--88------------8-8-10-----7-8---------------|
G --------7-------------7--------------------7---------------7--------45457-0~---|
D --0----------------------------------------------------------------------------|x1
A -------------------------------------------------------------------------------|
E -------------------------------------------------------------------------------|

Guitar 2- Match guitar 1 & 2's parts
E -------------------------------------------------------------------------|
B -------------------------------------------------------------------------|
D -----------7-------9-------7-------5-------------------------------------|
G ---5-(x8)--7-(x8)--9-(x5)--7-(x2)--5-(x8)--------------------------------|x4
A ---5-------5-------7-------5-------3-------------------------------------|
E ---3---------------------------------------------------------------------|
(D- tring does not have to be played with the power chords)

Verses 1

Guitar 1
E -------------------------------------------------------------------------|
B -------------------------------------------------------------------------|
D -------------------------------------------------------------------------|
G -----------7-(x8)--9-(x5)--7-(x2)--5-(x8)--------------------------------|x2
A ---5-(x8)--5-------7-------5-------3-------------------------------------|
E ---3---------------------------------------------------------------------|
All Palm Mute

Guitar 2
E -------------------------------------------------------------------------|
B -------------------------------------------------------------------------|
G -------12------14~----12-------14~--(x2)---------------------------------|
D -----------12-------------12---------------------------------------------|x2
A -------------------------------------------------------------------------|
E -------------------------------------------------------------------------|

Chorus 1

(All) Guitars
e---------------------------------------------------------------------------|
B --------------------------------------------------------------------------|
D -----------7-------9-------5---------9------------7-----------------------|
G ---5-(x8)--7-(x8)--9-(x4)--5-(x4)----9-(x1 or 2,--7--(x4)-----------------|x4
A ---5-------5-------7-------3---------7---3-or-4)--5-----------------------|
E ---3----------------------------------------------------------------------|
(D- tring does not have to be played with the power chords)

Verses 2

Same as Verse 1

Chorus 2

Same as Chorus 1

Pre-Interlude

E -------------------------------------------------------------------------------|
B -------------------------------------------------------------------------------|
G -------------------------------------------------------------------------------|
D --------------7~-----5~--------------------------------------------------------|x1
A --5-----------5~-----3~--------------------------------------------------------|
E --3----------------------------------------------------------------------------|

Interlude (or breakdown thingy)

Guitar 1
E --------------------------------------------------------------------------------|
B --8---8----8--8-/-10-10---8---8---8--8-/-10-10----------------------------------|
G ----7-----------------------7-------------------95------------------------------|
D --------------5-/--7--7--------------5----7--7----------------------------------|x1
A --------------------------------------------------------------------------------|
E --------------------------------------------------------------------------------|

Guitar 2- Match guitar 1 & 2's parts
E -------------------------------------------------------------------------|
B -------------------------------------------------------------------------|
D -----------7-------9-------7-------5-------------------------------------|
G ---5-(x8)--7-(x8)--9-(x5)--7-(x2)--5-(x8)--------------------------------|x2
A ---5-------5-------7-------5-------3-------------------------------------|
E ---3---------------------------------------------------------------------|
(D- tring does not have to be played with the power chords)

Guitar 1 CONTINUED
	Guitar 3- come in
E --10-----------------------10--------------------------------------------|
B ------10---8---8-----10--------10---8---8-------8------------------------|
D ---------------7---7--------------------7--7-----------------------------|
G -------------------------------------------------------------------------|x1
A -------------------------------------------------------------------------|
E -------------------------------------------------------------------------|


Guitar 2- Match guitar 1 & 2's parts
E -------------------------------------------------------------------------|
B -------------------------------------------------------------------------|
D -----------7-------9-------7-------5-------------------------------------|
G ---5-(x8)--7-(x8)--9-(x5)--7-(x2)--5-(x8)--------------------------------|x2
A ---5-------5-------7-------5-------3-------------------------------------|
E ---3---------------------------------------------------------------------|
(D- tring does not have to be played with the power chords)


Guitar 3 - on marked half of Guitar 1's part play either:

There may be a little variation but its easy to figure out
E -------------------------------------------------------------------------|
B -------777777777777777777777777777777777777777777777777777777777777------|
D -------------------------------------------------------------------------|
G -------------------------------------------------------------------------|
A -------------------------------------------------------------------------|
E -------------------------------------------------------------------------|

					or

E -------------------------------------------------------------------------|
B -------------------------------------------------------------------------|
D --------0000000000000000000000000000000000000000000000000000000000000----|
G -------------------------------------------------------------------------|
A -------------------------------------------------------------------------|
E -------------------------------------------------------------------------|


Then

	Verse 3

		-Only Verse 1 Guitar 3

	Chorus

	and finish with verse chords!

WOW THAT WAS A LOT BUT I DID IT...IT TOOK A LONG TIME BUT ITS SO WORTH IT CUZ I THINK 
AWESOME AND SOUNDS GREAT...
PLUS THIS SONG ROCKS!
            
Submit corrections

comments powered by Disqus
↑ Back to top | *Blink 182* Tabs for Another Girl Another Planet. Lyrics for acoustic guitar and electric guitar. Tablatures and chords are parodies/interpretations of the original songs. You may use it for private study, scholarship, research or language learning purposes only