» » »

*Blink 182*, After Midnight Tabs (ver.7)

Artists:  A B C D E F G H I J K L M N O P Q R S T U V W X Y Z # 

After Midnight Tabs (ver.7)

*Blink 182* Tabs
 Rating:
4/5 (4 votes)
After Midnight lessons Tabs too difficult? Try these video lessons and learn fast
                "As you all probably noticed, there wasn't any good tabs of this song yet.
So here it is 99% sure, let me know if you doubt about some parts. :)

                                 Intro
        -Awesome Drum Part From Travis-
Guitar I
|-(only this one on  the 3rd time)-|
e|---------------------------------|---------------------------------|
B|---------------------------------|---------------------------------|
G|--2-2-----------2-2--------------|--2-2-----------2-2--------------|
D|--2-2-----------2-2--------------|--2-2-----------2-2--------------|
A|--0-0-----------0-0--------------|--0-0-----------0-0--------------|
E|---------------------------------|---------------------------------|

                                 Verse
Guitar I

e|---------------------------------|---------------------------------|
B|---------------------------------|---------------------------------|
G|--2-2-----------2-2--------------|--2-2-----------2-2--------------|
D|--2-2-----------2-2--------------|--2-2-----------2-2--------------|
A|--0-0-----------0-0--------------|--0-0-----------0-0--------------|
E|---------------------------------|---------------------------------|
P.m.. .  (only)   . .   (for the)     . .   (2nd)   . .  (verse)
Guitar II

e|---------------------------------|---------------------------------|
B|---------------------------------|---------------------------------|
G|----9---9-9-9-9---6--7--7-7-7-7--|----9---9-9-9-9---6--7--7-7-7-7--|
D|----7---7-7-7-7---7--7--7-7-7-7--|----7---7-7-7-7---7--7--7-7-7-7--|
A|---------------------------------|---------------------------------|
E|---------------------------------|---------------------------------|


Guitar I

e|---------------------------------|---------------------------------|
B|---------------------------------|---------------------------------|
G|--7-7-----------7-7--------------|--7-7-----------7-7--------------|
D|--7-7-----------7-7--------------|--7-7-----------7-7--------------|
A|--5-5-----------5-5--------------|--5-5-----------5-5--------------|
E|---------------------------------|---------------------------------|


Guitar II

e|---------------------------------|---------------------------------|
B|---------------------------------|---------------------------------|
G|----9---9-9-9-9---7--7--7-7-7-7--|----9---9-9-9-9---7--7--7-7-7-7--|
D|----7---7-7-7-7---7--7--7-7-7-7--|----7---7-7-7-7---7--7--7-7-7-7--|
A|----5---5-5-5-5---5--5--5-5-5-5--|----5---5-5-5-5---5--5--5-5-5-5--|
E|---------------------------------|---------------------------------|

                               Pre-Chorus
Guitar I
       (11) not (1) of course
e|---------------------------------|---------------------------------|
B|---------------------------------|---------------------------------|
G|-1111111111111111111111111111111-\-7-7-7-7-7-7-7-7-7-7-7-7-7-7-7-7-|
D|-1111111111111111111111111111111-\-7-7-7-7-7-7-7-7-7-7-7-7-7-7-7-7-|
A|-9-9-9-9-9-9-9-9-9-9-9-9-9-9-9-9-\-5-5-5-5-5-5-5-5-5-5-5-5-5-5-5-5-|
E|---------------------------------|---------------------------------|
P.m. . . . . . . . . . . . . . . .   . . . . . . . . . . . . . . . .
Guitar II

e|---------------------------------|---------------------------------|
B|--10-------10-------9-------9----|--10-------10-------9-------9----|
G|-------9--------9-------9--------|-------9--------9-------9--------|
D|---------------------------------|---------------------------------|
A|---------------------------------|---------------------------------|
E|---------------------------------|---------------------------------|

Guitar I

e|---------------------------------|---------------------------------|
B|---------------------------------|---------------------------------|
G|---------------------------------|---------------------------------|
D|-7-7-7-7-7-7-7-7-7-7-7-7-7-7-7-7-|-7-7-7-7-7-7-7-7-7-7-7-7-7-7-7-7-|
A|-7-7-7-7-7-7-7-7-7-7-7-7-7-7-7-7-|-7-7-7-7-7-7-7-7-7-7-7-7-7-7-7-7-|
E|-5-5-5-5-5-5-5-5-5-5-5-5-5-5-5-5-|-5-5-5-5-5-5-5-5-5-5-5-5-5-5-5-5-|
P.m. . . . . . . . . . . . . . . .   . . . . . . . . . . . . . . . .
Guitar II

e|---------------------------------|---------------------------------|
B|--10-------10-------9-------9----|--10-------10-------9-------9----|
G|-------9--------9-------9--------|-------9--------9-------9--------|
D|---------------------------------|---------------------------------|
A|---------------------------------|---------------------------------|
E|---------------------------------|---------------------------------|

                                 Chorus
Guitar 1

e|---------------------------------|---------------------------------|
B|---------------------------------|---------------------------------|
G|-2-2-2-2-2-2-2-2-2-2-2-2-2-2-2-2-|-2-2-2-2-2-2-2-2-2-2-2-2-2-2-2-2-|
D|-2-2-2-2-2-2-2-2-2-2-2-2-2-2-2-2-|-2-2-2-2-2-2-2-2-2-2-2-2-2-2-2-2-|
A|-0-0-0-0-0-0-0-0-0-0-0-0-0-0-0-0-|-0-0-0-0-0-0-0-0-0-0-0-0-0-0-0-0-|
E|---------------------------------|---------------------------------|

Guitar II

e|---------------------------------|---------------------------------|
B|---------------------------------|---------------------------------|
G|-----4----6----9----6---4---6----|-----4----6----9----6---4---6----|
D|---------------------------------|---------------------------------|
A|-----2----4----7----4---2---4----|-----2----4----7----4---2---4----|
E|---------------------------------|---------------------------------|

Guitar I

e|---------------------------------|---------------------------------|
B|---------------------------------|---------------------------------|
G|-7-7-7-7-7-7-7-7-7-7-7-7-7-7-7-7-|-7-7-7-7-7-7-7-7-7-7-7-7-7-7-7-7-|
D|-7-7-7-7-7-7-7-7-7-7-7-7-7-7-7-7-|-7-7-7-7-7-7-7-7-7-7-7-7-7-7-7-7-|
A|-5-5-5-5-5-5-5-5-5-5-5-5-5-5-5-5-|-5-5-5-5-5-5-5-5-5-5-5-5-5-5-5-5-|
E|---------------------------------|---------------------------------|

Guitar II

e|---------------------------------|---------------------------------|
B|---------------------------------|---------------------------------|
G|-----4----6----9----6---4---6----|-----4----6----9----6---4---2----|
D|---------------------------------|---------------------------------|
A|-----2----4----7----4---2---4----|-----2----4----7----4---2---0----|
E|---------------------------------|---------------------------------|

                             Bridge/Solo
        -Cool Bass Part From Mark-
Guitar I

e|---------------------------------|---------------------------------|
B|---------------------------------|---------------------------------|
G|---------------------------------|---------------------------------|
D|---------------------------------|---------------------------------|
A|---------------------------------|---------------------------------|
E|---------------------------------|---------------------------------|

Guitar II
        with lots of distortion I guess
e|---------------------------------|---------------------------------|
B|---------------------------------|---------------------------------|
G|-----2----4----6--6--6----4----2-|-----2----4----6--6--6----4----6-|
D|---------------------------------|---------------------------------|
A|---------------------------------|---------------------------------|
E|---------------------------------|---------------------------------|

Guitar I

e|---------------------------------|---------------------------------|
B|---------------------------------|---------------------------------|
G|---------------------------------|---------------------------------|
D|---------------------------------|---------------------------------|
A|---------------------------------|---------------------------------|
E|---------------------------------|---------------------------------|

Guitar II

e|---------------------------------|---------------------------------|
B|---------------------------------|---------------------------------|
G|-2~------------------------------|-(2)-----------------------------|
D|-2~------------------------------|---------------------------------|
A|-0~------------------------------|---------------------------------|
E|---------------------------------|---------------------------------|

Guitar I

e|---------------------------------|---------------------------------|
B|---------------------------------|---------------------------------|
G|---------------------------------|---------------------------------|
D|---------------------------------|---------------------------------|
A|---------------------------------|---------------------------------|
E|---------------------------------|---------------------------------|

Guitar II

e|----------------------------------|---------------------------------|
B|----9------9------9------9-111111-\----7------7------7------7------7|
G|7-7----7-7----7-7----7-7-7-9-9-9--\5-5----5-5----5-5----5-5----5-5--|
D|----------------------------------|---------------------------------|
A|----------------------------------|---------------------------------|
E|----------------------------------|---------------------------------|

Guitar I

e|---------------------------------|---------------------------------|
B|---------------------------------|---------------------------------|
G|---------------------------------|---------------------------------|
D|---------------------------------|---------------------------------|
A|---------------------------------|---------------------------------|
E|---------------------------------|---------------------------------|

Guitar II

e|---------------------------------|---------------------------------|
B|----9------9------9------9------9\----7------7------7------7------7|
G|7-7----7-7----7-7----7-7----7-7--\5-5----5-5----5-5----5-5----5-5--|
D|---------------------------------|---------------------------------|
A|---------------------------------|---------------------------------|
E|---------------------------------|---------------------------------|

                                   END
Guitar I

e|---------------------------------|
B|---------------------------------|
G|-2-2-----------------------------|
D|-2-2-----------------------------|
A|-0-0-----------------------------|
E|---------------------------------|

Intro
Verse x3
Pre-Chorus x2
Chorus
Intro
Verse x2
Pre-Chorus x2
Chorus x2
Intro
Bridge/Solo
Chorus x2
END                             Hope You Like It
"            
Submit corrections

comments powered by Disqus
↑ Back to top | *Blink 182* Tabs for After Midnight. Lyrics for acoustic guitar and electric guitar. Tablatures and chords are parodies/interpretations of the original songs. You may use it for private study, scholarship, research or language learning purposes only