» » »

After Midnight Tabs (ver.3)

Artists:  A B C D E F G H I J K L M N O P Q R S T U V W X Y Z # 

After Midnight Tabs (ver.3)

*Blink 182*
Rating:
0/5 (0 votes)

Tabs too difficult? Try these video lessons and learn fast.
                "Blink 182 After Midnight

Tuning Standard
Im tabbing this from the actual recorded song that they released a few days ago 
but I doubt it's anything to brag about so you'll have to tweak a few things yourself.
Intro

E|-------------------|Then he plays D5 at one point instead of the A5, so: e|---|
B|-------------------|                                                     b|---|
G|-2-2---2-2---------|                                                     g|-7-|
D|-2-2---2-2---------|                                                     d|-7-|
A|-0-0---0-0---------|                                                     a|-5-|
e|-------------------|                                                     e|---|

E|------------------------------------------------------------|
B|------------------------------------------------------------|
G|-9--9-9-9-9-9-9-6-6-7-7--9--9-9-9-9-9-9-9-7-7-7-7-----------|
D|-7--7-7-7-7-7-7-7-7-7-7--7--7-7-7-7-7-7-7-7-7-7-7-----------|
A|------------------------------------------------------------|
e|------------------------------------------------------------|

^Second part is also the verse

Pre Chorus

E|-----------------------|
B|-10---10---9---9--10~--|
G|---9----9---9---9------|Repeat this as much as needed
D|----7----7---7------~--|
A|-----------------------|
e|-----------------------|

Chorus

E|-----------------------------------------------------------------|
B|-----------------------------------------------------------------|
G|-2---6p0p6p0-2--2-2-2-2------------------------------------------|
D|-2---6p0p6p0-2--2-2-2-2-7/9/11-----------------------------------|
A|-0---4p0p4p0-0--0-0-0-0-x/x/-x-----------------------------------|
e|------------------------5/7/-9-----------------------------------|

Repeat as much as needed, but on last time do not play the 7/9/11 part just keep 
playing the A5 chords (xx220x)

Interlude

E|------------------------------------------------------------------------|
B|------------------------------------------------------------------------|
G|----------------------------------------------11~~~---------------------|
D|-7-9-9-11-11-11-11-9-7--7-9-9-11-11-11-11-9-7-0~~~~----7~~~-------------|
A|-0-0-0-0--0--0--0--0-0--0-0-0-0--0--0--0--0-0-0~~~~---------------------|
e|------------------------------------------------------------------------|

E|-------------------------------------------------------------------------|
B|-----5------5-----5-----5-----5------------------------------------------|
G|-6-6----6-6---6-6---6-6---6-6--------2----2------2------2------2------2--|
D|---------------------------------4-4--4-4----4-4----4-4----4-4----4-4----|
A|-------------------------------------------------------------------------|
e|-------------------------------------------------------------------------|

Repeat as much as needed, play chorus, end song.
"            
Tabs too difficult? Try these video lessons and learn fast.




comments powered by Disqus
↑ Back to top | Tablatures and chords are parodies/interpretations of the original songs. You may use it for private study, scholarship, research or language learning purposes only