» » »

*Blink 182*, After Midnight Bass tabs (ver.2)

Artists:  A B C D E F G H I J K L M N O P Q R S T U V W X Y Z # 

After Midnight Bass tabs (ver.2)

*Blink 182* Tabs
Rating:
0/5 (0 votes)
After Midnight lessons Tabs too difficult? Try these video lessons and learn fast
                "DROP D

Intro

G |-------------------- -------------------|
D |--------------------- ------------------|
A |----0-0-----0-0---- x4 ---5-5---5-5-----|
D |--------------------- ------------------|

Verse

G |-----------------------|
D |-----------------------|
A |----0---------- -------|
D |------------0----------|



prechorus

G |---------------------------------|
D |---------------------------------|
A |---999999-5555555----00000000000-|
D |---------------------------------|

G |--------------------------------|
D |--------------------------------|
A |---999999-5555555---------------|
D |--------------------------------|



Chorus

G |---------------------|
D |---------------------|
A |----0---------- -----|
D |------------0--------|



Post chorus #1

G |--------------------------|
D |--------------------------|
A |----0-0-0-0-0-0-0-0-------|
D |--------------------------|



Bridge pt 1

G |----9---7---9---7---------------|
D |----7---7---7---7---7-----------|
A |- ------------- -------5--- x 2-|
D |--------------------------------|

Bridge part 2

G |----------------------|
D |---9---11---7---------|
A |---7---9--- -5--------| x2
D |----------------------|

Chorus

G |---------------------|
D |---------------------|
A |----0---------- -----|
D |------------0--------|

End

G |---------------------|
D |---------------------|
A |----00---------------|
D |---------------------|
"            

comments powered by Disqus
↑ Back to top | *Blink 182* Bass for After Midnight. Lyrics for acoustic guitar and electric guitar. Tablatures and chords are parodies/interpretations of the original songs. You may use it for private study, scholarship, research or language learning purposes only