» » »

*Blink 182*, After Midnight Chords (ver.1)

Artists:  A B C D E F G H I J K L M N O P Q R S T U V W X Y Z # 

After Midnight Chords (ver.1)

*Blink 182* Tabs
Rating:
0/5 (0 votes)
After Midnight lessons Tabs too difficult? Try these video lessons and learn fast
                Blink 182 - After Midnight

Powerchords as usual I believe, and play the second guitar all through the parts! 

A   x02220  
D   xx0232
F#m 244222  
B5  x244xx   
C#5 x466xx

    A                                               D
e|-------------------------------------------------------------------------------------------|
B|--5-5-5-5-5--2-3-3-3----5-5-5-5-5--3-3-3-3--------5-5-5-5-5--2-3-3-3----5-5-5-5-5--3-3-3-3-|
G|--2-2-2-2-2--2-2-2-2----2-2-2-2-2--2-2-2-2--------2-2-2-2-2--2-2-2-2----2-2-2-2-2--2-2-2-2-|
D|--2-2-2-2-2--2-2-2-2----2-2-2-2-2--2-2-2-2--------0-0-0-0-0--0-0-0-0----0-0-0-0-0--0-0-0-0-|
A|--0-0-0-0-0--0-0-0-0----0-0-0-0-0--0-0-0-0-------------------------------------------------|
E|-------------------------------------------------------------------------------------------|

A
I can't get my feet up off the edge
                        D
I kinda like the little rush you get

When you're standing close to death

Like when you're driving me crazy
A
Hold on as we crash into the earth
                            D
A bit of pain will help you suffer when you're hurt, for real

Cause you're driving me crazy


    F#m             D               A
e|--5---5---4---4---5---5---4---4---5---5---4---4---5---5---4---4------------|
B|----5---5---5---5---5---5---5---5---5---5---5---5---5---5---5---5----------|
G|---------------------------------------------------------------------------|
D|---------------------------------------------------------------------------|
A|---------------------------------------------------------------------------|
E|---------------------------------------------------------------------------|

F#m
By your lips, the word's a robbery
D
Do you grin inside, You're killing me
A
All along we talked of forever

I kinda think that we won't get better
F#m
It's the longest start, but the end's not too far away
D
Did you know, I'm here to stay


A                                 (B5 C#5)
We'll stagger home after midnight
A                                 (B5 C#5)
Sleep arm in arm in the stairwell
D                                 (B5 C#5)
We'll fall apart on the weekend
                              A
These nights go on and on and on


A
I can't keep your voice out of my head
                    D
All I hear are many echoes of

The darkest words you said

And it's driving me crazy
A
I can't find the best in all of this
                       D
But I'm always looking out for you

Cause you're the one I miss

And it's driving me crazy


F#m
By your lips, the word's a robbery
D
Do you grin inside, You're killing me
A
All along we talked of forever

I kinda think that we won't get better
F#m
It's the longest start, but the end's not too far away
D
Did you know, I'm here to stay


A                                 (B5 C#5)
We'll stagger home after midnight
A                                 (B5 C#5)
Sleep arm in arm in the stairwell
D                                 (B5 C#5)
We'll fall apart on the weekend
                              A
These nights go on and on and on
[x4]
            
Submit corrections

comments powered by Disqus
↑ Back to top | *Blink 182* Chords for After Midnight. Lyrics for acoustic guitar and electric guitar. Tablatures and chords are parodies/interpretations of the original songs. You may use it for private study, scholarship, research or language learning purposes only