» » »

*Blink 182*, Adam Song Tabs (ver.11)

Artists:  A B C D E F G H I J K L M N O P Q R S T U V W X Y Z # 

Adam Song Tabs (ver.11)

*Blink 182* Tabs
 Rating:
4/5 (4 votes)
Adam Song lessons Tabs too difficult? Try these video lessons and learn fast
                (Riff)
Riff 1
E------------------------------------------------------------------
B------------------------------------------------------------------
G------------------------------------------------------------------
D-----2------2-------2-------2-------2-------2-------2-------2-----
A---0---3--0---3-------3-------3-------3-------3-------3-------3---
E------------------3-------3-------1-------1-------0-------3-------

E------------------------------------------------------------------
B------------------------------------------------------------------
G------------------------------------------------------------------
D-----2------2-------2-------2-------2-------2-------2-------2-----
A---0---3--0---3-------3-------3-------3-------3-------3-------3---
E------------------3-------3-------1-------1-------0-------3-------

Riff 2
E------------------------------------------------------------------
B------------------------------------------------------------------
G-----0------0-------2-------2-------------------------------------
D-------3------3-------3-------3-----2-------2-------2------2------
A---3------3-------5-------5-------0---3---0---3-------3------3----
E--------------------------------------------------3------3--------

E------------------------------------------------------------------
B------------------------------------------------------------------
G-----0------0-------2-------2-------------------------------------
D-------3------3---0---3---0---3-----2-------2-------2------2------
A---3------3-----------------------0---3---0---3-------3------3----
E--------------------------------------------------3------3--------
            
Submit corrections

comments powered by Disqus
↑ Back to top | *Blink 182* Tabs for Adam Song. Lyrics for acoustic guitar and electric guitar. Tablatures and chords are parodies/interpretations of the original songs. You may use it for private study, scholarship, research or language learning purposes only