» » »

*Blink 182*, Adam Song Tabs (ver.1)

Artists:  A B C D E F G H I J K L M N O P Q R S T U V W X Y Z # 

Adam Song Tabs (ver.1)

*Blink 182* Tabs
 Rating:
4/5 (4 votes)
Adam Song lessons Tabs too difficult? Try these video lessons and learn fast
1
                E|--------------------------------------------------------|G
B|--------------------------------------------------------|U
G|--------------------------------------------------------|I
D|---2------2------2------2------2------2------2------2---|T
A|-0---3--0---3------3------3------3------3------3------3-|A
E|---------------3------3------1------1------0------1-----|R
                                                        x2


(palm mute)
E|--------------------------------------------------------|G
B|--------------------------------------------------------|U
G|-5---------------2--------------------------------------|I
D|-5-(x8)--3-------2-(x8)----3----------------------------|T
A|-3-------3-(x8)--0---------3-(x8)-----------------------|A
E|---------1-----------------1----------------------------|R
                                                        x4



E|--------------------------------------------------------|G
B|--------------------------------------------------------|U
G|---0----0----------2------2-----------------------------|I
D|-----3-----3-----0---3--0---3----2------2------2------2-|T
A|-3-----3-----------------------0---3--0---3-------------|A
E|---------------------------------------------1---3-1---3|R
                                                       x2


(palm mute)
E|--------------------------------------------------------|G
B|--------------------------------------------------------|U
G|--5-------7---------------------------------------------|I
D|--5-(x8)--7-(x8)-7-------3------------------------------|T
A|--3-------5------7-(x8)--3-(x8)-------------------------|A
E|-----------------5-------1------------------------------|R
                                                        x2



E|--------------------------------------------------------|G
B|--------------------------------------------------------|U
G|--------------------------------------------------------|I
D|---2------2------2------2------2------2------2------2---|T
A|-0---3--0---3------3------3------3------3------3------3-|A
E|---------------3------3------1------1------0------1-----|R
                                                        x2





(palm mute)
E|--------------------------------------------------------|G
B|--------------------------------------------------------|U
G|-5---------------2--------------------------------------|I
D|-5-(x8)--3-------2-(x8)----3----------------------------|T
A|-3-------3-(x8)--0---------3-(x8)-----------------------|A
E|---------1-----------------1----------------------------|R
                                                        x4



E|---------------------------------------------------------|G
B|---------------------------------------------------------|U
G|---0----0----------2------2------------------------------|I
D|-----3-----3-----0---3--0---3----2------2------0------0--|T
A|-3-----3-----------------------0---3--0---3--------------|A
E|---------------------------------------------1---3--1---3|R
                                                       x2



(palm mute)
E|--------------------------------------------------------|G
B|--------------------------------------------------------|U
G|--5-------7---------------------------------------------|I
D|--5-(x8)--7-(x8)-7-------3------------------------------|T
A|--3-------5------7-(x8)--3-(x8)-------------------------|A
E|-----------------5-------1------------------------------|R
                                                        x2



(palm mute)
E|--------------------------------------------------------|G
B|--------------------------------------------------------|U
G|--5-------7---------------------------------------------|I
D|--5-(x8)--7-(x8)-7-------3------------------------------|T
A|--3-------5------7-(x8)--3-(x8)-------------------------|A
E|-----------------5-------1------------------------------|R
                                                        x4


I never thought
I'd die alone
I laughed the loudest 
Who'd have known
I traced the cord back to the wall
No wonder it was never plugged in at all
I took my time
I hurried up
The choice was mine I didn't think enough
I'm too depressed 
To go on
You'll be sorry when I'm gone



I never conquered really came
sixteen just held such better days
days when I still felt alive
We couldn't wait to get outside the world
is why to late too try
the tool was over
we'd survived
I couldn't wait
til' I go home
to pass the time in my room alone


I never thought
I'd die alone
another six months
i'll be unknown
give all my things
to all my friends
you'll never step foot in my room again
you'll close it off
board it up
remember the time that i spilled the cup
of apple juice
in the hall
please tell mom this is not her fault


I never conquered really came
sixteen just held such better days
days when I still felt alive
we couldn't wait to get outside the world
was why too late to try
the tool was over
we'd survived
i couldn't wait
til' I go home
to pass the time in my room alone


I never conquered really came
tomorrow hope such better days
days when I can still feel alive
when I can't wait to get outside the world
is why the time goes by
the tool is over
I'd survived
I can't wait
til' i get home
to pass the time in my room alone




And that's the whole song except for the solos which you can hardly hear!
            
Submit corrections

comments powered by Disqus
↑ Back to top | *Blink 182* Tabs for Adam Song. Lyrics for acoustic guitar and electric guitar. 1 Tablatures and chords are parodies/interpretations of the original songs. You may use it for private study, scholarship, research or language learning purposes only