» » »

*Blink 182*, Adam Song Tabs (ver.3)

Artists:  A B C D E F G H I J K L M N O P Q R S T U V W X Y Z # 

Adam Song Tabs (ver.3)

*Blink 182* Tabs
 Rating:
4/5 (4 votes)
Adam Song lessons Tabs too difficult? Try these video lessons and learn fast
1
                
I think this version is pretty accurate but I can\'t be sure. I finally found the time to modify it. It's still not perfect but it will do.

Intro: Riff 1

E|-----------------------------------------------------------------|
B|-----------------------------------------------------------------|
G|-----------------------------------------------------------------|
D|----4-0----4-0----4-0----4-0----4-0----4-0----4-0----4-0---------|
A|--2------2------0------0-----------------------------------------|
E|------------------------------3------3------0------3------br-------|

Verse Riff

E|-----------------------------------------------------------------|
B|-----------------------------------------------------------------|
G|-5-5-5-5-5-5-5-5-------------------------------------------------|
D|-5-5-5-5-5-5-5-5-3-3-3-3-3-3-3-3-7-7-7-7-7-7-7-7-3-3-3-3-3-3-3-3-|
A|-3-3-3-3-3-3-3-3-3-3-3-3-3-3-3-3-7-7-7-7-7-7-7-7-3-3-3-3-3-3-3-3-|
E|-----------------1-1-1-1-1-1-1-1-5-5-5-5-5-5-5-5-1-1-1-1-1-1-1-1-|

After verses: Riff 2

E|-----------------------------------------------------------------|
B|-----------------------------------------------------------------|
G|-----0----0----0----0--------------------------------------------|
D|---7----7----9----9-----4-0----4-0----4-0---4-0------------------|
A|-5----5----7----7-----2------2-----------------------------------|
E|------------------------------------3------3---------------------|

Chorus: (1st part) Riff 3

E|-----------------------------------------------------------------|
B|-----------------------------------------------------------------|
G|-5-5-5-5-5-5-5-5-7-7-7-7-7-7-7-7---------------------------------|
D|-5-5-5-5-5-5-5-5-7-7-7-7-7-7-7-7-7-7-7-7-7-7-7-7-3-3-3-3-3-3-3-3-|
A|-3-3-3-3-3-3-3-3-5-5-5-5-5-5-5-5-7-7-7-7-7-7-7-7-3-3-3-3-3-3-3-3-|
E|---------------------------------5-5-5-5-5-5-5-5-1-1-1-1-1-1-1-1-|

Chorus: (2nd Part) Riff 4

E|------------------------------------------------------------------|
B|------------------------------------------------------------------|
G|-5-5-5-5-5-5-5-5-7-7-7-7-7-7-7-7-----------------10-10-10-10-10-10|
D|-5-5-5-5-5-5-5-5-7-7-7-7-7-7-7-7-7-7-7-7-7-7-7-7-10-10-10-10-10-10|
A|-3-3-3-3-3-3-3-3-5-5-5-5-5-5-5-5-7-7-7-7-7-7-7-7-8--8--8--8--8--8-|
E|---------------------------------5-5-5-5-5-5-5-5------------------|

Then: Riff 1
Then: Verse Riff
Then: Riff 2
Then: Riff 3
Then: Riff 4

Bridge
|----------------------------------------------------------------|
|----------------------------------------------------------------|
|----------------------------------------------------------------|
|-----3-----3-----3-----3-----3-3--------------------------------|
|-3-3---3-3---3-3---3-3---3-3------------------------------------|
|----------------------------------------------------------------|

I got the piano part transcribed for guitar. You don\'t have to play it but I thought I could add it in.

Solo (piano transcribed for guitar)
|----------------------------------------------------------------|
|----13-15-13----13-15-13-18-18-18-17-17-17-17-13----13-15-------|
|-12----------12----------------------------------12-------10----|
|----------------------------------------------------------------|
|----------------------------------------------------------------|
|----------------------------------------------------------------|

|----------------------------------------------------------------|
|-13-15----13-15---17-17-17--18-18-18-18-20----------------------|
|-------12-------------------------------------------------------|
|----------------------------------------------------------------|
|----------------------------------------------------------------|
|----------------------------------------------------------------|

Riff 5
|----------------------------------------------------------------| 
|----------------------------------------------------------------|
|-----5------5------5-----5------5-5-----------------------------|
|----------------------------------------------------------------|
|-3-3----3-3----3-3---3-3----3-3---------------------------------|
|----------------------------------------------------------------|   

Then: Riff 3
Then: Riff 4
            
Submit corrections

comments powered by Disqus
↑ Back to top | *Blink 182* Tabs for Adam Song. Lyrics for acoustic guitar and electric guitar. 1 Tablatures and chords are parodies/interpretations of the original songs. You may use it for private study, scholarship, research or language learning purposes only