» » »

*Blink 182*, Adam Song Tabs (ver.2)

Artists:  A B C D E F G H I J K L M N O P Q R S T U V W X Y Z # 

Adam Song Tabs (ver.2)

*Blink 182* Tabs
Rating:
0/5 (0 votes)
Adam Song lessons Tabs too difficult? Try these video lessons and learn fast
                "(0)
---------------------
 |  Adams Song         |
 |   Blink 182         |
  ---------------------  

  Tuning : Standard , C# G# C# F# A# D# , C# F# Cb E# G# C#    I tHINK ANY OF THESE TUNINGS SOUNDS GOOD

  Intro 

  |-------------------------------------------------------------------------|
  |-------------------------------------------------------------------------|
  |-------------------------------------------------------------------------| repeat x2 
  |--------4--0---4--0----4--0----4--0----4--0------4--0------4--0----4--0--|
  |----2--------2-------0-------0-------------------------------------------|
  |-------------------------------------3---------3--------0--------3-------|



  Bass and druns
   \"I\'d never fought I die alone I laughted the loudest who would of Known\" 



  |-------------------------------------------------------------------------|
  |-------------------------------------------------------------------------|
  |---------0----0----------0-----0-----------------------------------------| repeat x2  
  |-------7-----7---------9-----9-------------4--0------------4--0----------|
  |-----5------5--------7-----7---------2--2--------------------------------|
  |-----------------------------------------------------3--3----------------|

  
   Pre Chorus

  |-----------------------------------------------------------------------------------|
  |-----------------------------------------------------------------------------------|
  |-----------------------------------------------------------------------------------|
  |--7-7-7-7-7-7-7-7-----9-9-9-9-9-9-9-9----------------------12-12-12-12-12-12-12-12-|
  |--5-5-5-5-5-5-5-5-----7-7-7-7-7-7-7-7-----9-9-9-9-9-9-9-9--10-10-10-10-10-10-10-10-|
  |------------------------------------------7-7-7-7-7-7-7-7--------------------------|

  |-----------------------------------------------------------------------------------|
  |-----------------------------------------------------------------------------------|
  |---11-11-11-11-11-11-11-11---12-12-12-12-12-12-12-12---11-11-11-11-11-11-11-11-----|
  |----X--x--x--x--x--x--x--x----x--x--x--x--x--x--x--x----x--x--x--x--x--x--x--x-----|
  |----9--9--9--9--9--9--9--9---10-10-10-10-10-10-10-10----9--9--9--9--9--9--9--9-----|
  |---10-10-10-10-10-10-10-10----0--0--0--0--0--0--0--0-------------------------------|
 
  |-----------------------------|
  |-----------------------------|
  |---12-12-12-12-12-12-12-12---|
  |----x--x--x--x--x--x--x--x---|
  |---10-10-10-10-10-10-10-10---|
  |-----------------------------|


  Chorus

  |----------------------------------------------------------------------------|
  |----------------------------------------------------------------------------|
  |----------------------------------------------------------------------------| repeat x2
  |------7-7-7-7-7-7-7-7---9-9-9-9-9-9-9-9---4-4-4-4-4-4-4-4-------------------|
  |------5-5-5-5-5-5-5-5---7-7-7-7-7-7-7-7---2-2-2-2-2-2-2-2---5-5-5-5-5-5-5-5-|
  |------------------------------------------------------------3-3-3-3-3-3-3-3-|


     REPETE ALL OF THE ABOVE  ONCE


  |-----------------------------------|    
  |-----------------------------------|
  |------0-----0-----0-----0-------0--| repeat x3
  |----4-----4-----4-----4---4---4----|
  |--5-----5-----5-----5-------5------|
  |-----------------------------------|

  |---------------------------------------|
  |---------------------------------------|
  |-------7-----7-----7-----7-----7-----7-| repeat x4
  |---0-0---0-0---0-0---0-0---0-0---0-0---|
  |---------------------------------------|
  |---------------------------------------|


   Play through Chorus Till end.
"            
Submit corrections

comments powered by Disqus
↑ Back to top | *Blink 182* Tabs for Adam Song. Lyrics for acoustic guitar and electric guitar. Tablatures and chords are parodies/interpretations of the original songs. You may use it for private study, scholarship, research or language learning purposes only