» » »

*Blink 182*, Adam Song Tabs (ver.10)

Artists:  A B C D E F G H I J K L M N O P Q R S T U V W X Y Z # 

Adam Song Tabs (ver.10)

*Blink 182* Tabs
 Rating:
4/5 (4 votes)
Adam Song lessons Tabs too difficult? Try these video lessons and learn fast
                (Live)
Notes: Heres the correct way to play one of the best songs of the last part of the 90's. 
First amp settings for the clean guitar have Bass at about 6 Mid at about 4 and Treble at about 10 you also want a little Chorus and Reverb.
For the Distorted guitar just crank it up Bass, Mid, Treble, and Gain all to 10 and a little reverb.
Key: * = Palm Mute 
     / = Slide up the neck
     \ = Slide Down the neck
Tuning:D
       A
       F                                
       C                                
       G                                
       D 

Intro (Clean) 0:00, 1:25                                                                               
e------------------------------------------------------------------------------
B------------------------------------------------------------------------------
G------------------------------------------------------------------------------
D-----4--0------4--0-----4--0-----4--0-----4--0------4--0-----4--0-----4--0----
A--2---------2--------0--------0-----------------------------------------------
E---------------------------------------3--------3---------0--------3----------
                                                                                                 Verse (Clean) 0:14, 1:39                                    
   * * * * * * *  * * * * * * *   * * * * * * *   * * * * * * *
e------------------------------------------------------------------------------
B------------------------------------------------------------------------------
G------------------------------------------------------------------------------
D--7-7-7-7-7-7-7---------------------------------------------------------------
A--5-5-5-5-5-5-5--5-5-5-5-5-5-5-/-9-9-9-9-9-9-9-\-5-5-5-5-5-5-5----------------
E-----------------3-3-3-3-3-3-3-/-7-7-7-7-7-7-7-\-3-3-3-3-3-3-3----------------

Interlude (Clean) 0:43, 2:07                                                               

e------------------------------------------------------------------------------
B------------------------------------------------------------------------------
G----2-0----2-0----4-0-----4-0-------------------------------------------------
D--0------0------2-------2--------4-0----4-0----4-0----4-----------------------
A-------------------------------2------2-----------------5---------------------
E---------------------------------------------3------3-------------------------
                                            
Chorus (Clean) 0:57, 2:21

e------------------------------------------------------------------------------
B------------------------------------------------------------------------------
G--7-7-7-7-7-7-7-7-\-9-9-9-9-9-9-9-9-------------------------------------------
D--x-x-x-x-x-x-x-x---x-x-x-x-x-x-x-x--0--9-9-9-9-9-9-9-9-/-5-5-5-5-5-5-5-5-----
A--5-5-5-5-5-5-5-5-\-7-7-7-7-7-7-7-7--0--x-x-x-x-x-x-x-x---x-x-x-x-x-x-x-x-----
E-------------------------------------0--7-7-7-7-7-7-7-7-/-3-3-3-3-3-3-3-3-----

Chorus (distorted) 1:11, 2:35                                        

e------------------------------------------------------------------------------
B------------------------------------------------------------------------------
G--7-7-7-7-7-7-7-7--9-9-9-9-9-9-9-9--------------------------------------------
D--7-7-7-7-7-7-7-7--9-9-9-9-9-9-9-9--0--9-9-9-9-9-9-9-9--5-5-5-5-5-5-5-5----------
A--5-5-5-5-5-5-5-5--7-7-7-7-7-7-7-7--0--9-9-9-9-9-9-9-9--5-5-5-5-5-5-5-5----------
E------------------------------------0--7-7-7-7-7-7-7-7--3-3-3-3-3-3-3-3----------

BreakDown (clean) 2:49
(this riff was hard to tab out all you do is play 7's on the D and G to the beat of the music) 
e------------------------------------------------------------------------------
B------------------------------------------------------------------------------
G------7-----7-----7-----7-------7-----7-----7-----7-----7-------7-------------
D--7-7---7-7---7-7---7-7---7-7-7---7-7---7-7---7-7---7-7---7-7-7---------------
A------------------------------------------------------------------------------
E------------------------------------------------------------------------------
           
(distorted) 3:23
                                                                      :last time only:
e------------------------------------------------------------------------------
B------------------------------------------------------------------------------
G--7-7-7-7-7-7-7-7-\-9-9-9-9-9-9-9-9---------------------------------------:7:-
D--7-7-7-7-7-7-7-7---9-9-9-9-9-9-9-9--0--9-9-9-9-9-9-9-9-/-5-5-5-5-5-5-5-5-:7:-
A--5-5-5-5-5-5-5-5-\-7-7-7-7-7-7-7-7--0--9-9-9-9-9-9-9-9---5-5-5-5-5-5-5-5-:5:-
E-------------------------------------0--7-7-7-7-7-7-7-7-/-3-3-3-3-3-3-3-3-----


Lyrics: if you want them contact me




End.
            
Submit corrections

comments powered by Disqus
↑ Back to top | *Blink 182* Tabs for Adam Song. Lyrics for acoustic guitar and electric guitar. Tablatures and chords are parodies/interpretations of the original songs. You may use it for private study, scholarship, research or language learning purposes only