» » »

*Blink 182*, Adam Song Tabs (ver.7)

Artists:  A B C D E F G H I J K L M N O P Q R S T U V W X Y Z # 

Adam Song Tabs (ver.7)

*Blink 182* Tabs
 Rating:
4/5 (4 votes)
Adam Song lessons Tabs too difficult? Try these video lessons and learn fast
                (Full)
Blink 182- (tune DGCFGAd though it still works ok on normal tuning)
Adams song
Enema of the state

I hope this is ok for you all.

Intro (repeat once)

d------------------------------------------------------------------------------------*
A------------------------------------------------------------------------------------*
F------------------------------------------------------------------------------------*
C-----4-0----4-0----4-0----4-0----4-0----4-0----4-0----4-0---------------------------*
G---2------2------0------0-----------------------------------------------------------*
D-------------------------------3------3------3------3-------------------------------*

Verse (palm mute this one clean and play 4 times, I suggest playing along with c.d to get correct timing.

d------------------------------------------------------------------------------------*
A------------------------------------------------------------------------------------*
F------------------------------------------------------------------------------------*
C---33333333-------------------------------------------------------------------------*
G---55555555----55555555----99999999----55555555-------------------------------------*
D---------------33333333----77777777----33333333-------------------------------------*

Pre-chorus 

d------------------------------------------------------------------------------------*
A------------------------------------------------------------------------------------*
F------0------0------0------0--------------------------------------------------------*
C----7-------7------9------9-------4-0----4-0----4-0----4-0--------------------------*
G--5-------5-------7------7-------2------2-------------------------------------------*
D----------------------------------------------3------3------------------------------*

(and if your not bothering to change the tuning play......)

d------------------------------------------------------------------------------------*
A------------------------------------------------------------------------------------*
F------0------0------0------0--------------------------------------------------------*
C----0-------0------0------0-------4-0----4-0----4-0----4-0--------------------------*
G--5-------5-------7------7-------2------2-------------------------------------------*
D----------------------------------------------3------3------------------------------*

Chorus (clean)

d------------------------------------------------------------------------------------*
A------------------------------------------------------------------------------------*
F--77777777----99999999----44444444--------------------------------------------------*
C--77777777----99999999----44444444----55555555--------------------------------------*
G--55555555----77777777----22222222----55555555--------------------------------------*
D--------------------------------------33333333--------------------------------------*
(keepin it clean)
d------------------------------------------------------------------------------------*
A------------------------------------------------------------------------------------*
F--77777777----99999999----11-11-11-11-11-11-11-11----12-12-12-12-12-12-12-12--------*
C--77777777----99999999----11-11-11-11-11-11-11-11----12-12-12-12-12-12-12-12--------*
G--55555555----77777777----9--9--9--9--9--9--9--9-----10-10-10-10-10-10-10-10--------*
D------------------------------------------------------------------------------------*

d------------------------------------------------------------------------------------*
A------------------------------------------------------------------------------------*
F--77777777----99999999----44444444--------------------------------------------------*
C--77777777----99999999----44444444----55555555--------------------------------------*
G--55555555----77777777----22222222----55555555--------------------------------------*
D--------------------------------------33333333--------------------------------------*

Break
d--------------------------------- and    d--------------------------*
A---------------------------------        A-----7-------8-7----------*
F------0--0----0--0---------------        F--5-7---5-7-5----7--------*
C----0---0---0---0----------------        C------5-------------------*
G--5-------5----------------------        G--------------------------*
D---------------------------------        D--------------------------*

for any comments good and bad.
            
Submit corrections

comments powered by Disqus
↑ Back to top | *Blink 182* Tabs for Adam Song. Lyrics for acoustic guitar and electric guitar. Tablatures and chords are parodies/interpretations of the original songs. You may use it for private study, scholarship, research or language learning purposes only