» » »

*Blink 182*, Adam Song Tabs (ver.6)

Artists:  A B C D E F G H I J K L M N O P Q R S T U V W X Y Z # 

Adam Song Tabs (ver.6)

*Blink 182* Tabs
 Rating:
4/5 (4 votes)
Adam Song lessons Tabs too difficult? Try these video lessons and learn fast
                (Correct)
                           ADAM’S SONG - Blink-182




Intro                                                                 play 2 times
----4--0----4--0-----4--0-----4--0-----4--0-----4--0-----4--0--
--2-------2--------0--------0---------------------------------------
-------------------------------------3--------3--------0--------3---


Verse: distortion and palm mute                                           play 4 times
--4-4-4-4-4-4-4-4-----------------------------------------------------------------
--5-5-5-5-5-5-5-5--5-5-5-5-5-5-5-5--9-9-9-9-9-9-9-9--5-5-5-5-5-5-5-5--
-----------------------3-3-3-3-3-3-3-3--7-7-7-7-7-7-7-7--3-3-3-3-3-3-3-3--

 
Interlude                                                                  play 2 times
--------0-------0-------0-------0-----------------------------------------
-----7-------7-------9-------9--------4--0-----4--0-----4--0----4--0--
--5-------5-------7-------7--------2--------2----------------------------
----------------------------------------------------------3--------3-------


  Chorus: distortion                                                              play 5 times
--7-7-7-7-7-7-7-7--9-9-9-9-9-9-9-9--4-4-4-4-4-4-4-4-----------------------
--7-7-7-7-7-7-7-7--9-9-9-9-9-9-9-9--4-4-4-4-4-4-4-4--5-5-5-5-5-5-5-5--
--5-5-5-5-5-5-5-5--7-7-7-7-7-7-7-7--2-2-2-2-2-2-2-2--5-5-5-5-5-5-5-5--





Intro                                                                 play 2 times
----4--0----4--0-----4--0-----4--0-----4--0-----4--0-----4--0--
--2-------2--------0--------0---------------------------------------
-------------------------------------3--------3--------0--------3---


Verse: distortion and palm mute                                           play 4 times
--4-4-4-4-4-4-4-4-----------------------------------------------------------------
--5-5-5-5-5-5-5-5--5-5-5-5-5-5-5-5--9-9-9-9-9-9-9-9--5-5-5-5-5-5-5-5--
-----------------------3-3-3-3-3-3-3-3--7-7-7-7-7-7-7-7--3-3-3-3-3-3-3-3--


Interlude                                                                  play 2 times
--------0-------0-------0-------0-----------------------------------------
-----7-------7-------9-------9--------4--0-----4--0-----4--0----4--0--
--5-------5-------7-------7--------2--------2----------------------------
----------------------------------------------------------3--------3-------

  
  Chorus: distortion                                                               play 5 times
--7-7-7-7-7-7-7-7--9-9-9-9-9-9-9-9--4-4-4-4-4-4-4-4-----------------------
--7-7-7-7-7-7-7-7--9-9-9-9-9-9-9-9--4-4-4-4-4-4-4-4--5-5-5-5-5-5-5-5--
--5-5-5-5-5-5-5-5--7-7-7-7-7-7-7-7--2-2-2-2-2-2-2-2--5-5-5-5-5-5-5-5--


Verse: distortion and palm mute                                           play 4 times
--4-4-4-4-4-4-4-4-----------------------------------------------------------------
--5-5-5-5-5-5-5-5--5-5-5-5-5-5-5-5--9-9-9-9-9-9-9-9--5-5-5-5-5-5-5-5--
-----------------------3-3-3-3-3-3-3-3--7-7-7-7-7-7-7-7--3-3-3-3-3-3-3-3--



Lyrics:
Adam’s Song – Blink 182

I never thought I'd die alone,
I laughed the loudest, who'd have known?
I traced the cord back to the wall,
No wonder it was never plugged in at all.
I took my time; I hurried up,
The choice was mine I didn’t think enough.
I’m too depressed to go on,
You'll be sorry when I’m gone...

I never conquered, when you came,
16 just held such better days.
Days when I still felt alive,
We couldn’t wait to get outside.
The world was wide, too late to try,
The tour was over, Id survived.
I couldn't wait ‘til I got home,
To pass the time in my room alone.

I never thought I'd die alone,
Another six months Ill be unknown.
Give all my things to all my friends,
You'll never set foot in my room again.
You'll close it off, board it up,
Remember the time I spilled the cup.
Of apple juice in the hall,
Please tell mom this is not her fault.

I never conquered, when you came,
Tomorrow held such better days.
Days when I still felt alive,
When I can’t wait to get outside.
The world is wide; the time goes by,
The tour is over; I've survived.
I can’t wait till I get home,
To pass the time in my room alone...
            
Submit corrections

comments powered by Disqus
↑ Back to top | *Blink 182* Tabs for Adam Song. Lyrics for acoustic guitar and electric guitar. Tablatures and chords are parodies/interpretations of the original songs. You may use it for private study, scholarship, research or language learning purposes only