» » »

Blink, Wendy Clear Tabs (ver.1)

Artists:  A B C D E F G H I J K L M N O P Q R S T U V W X Y Z # 

Wendy Clear Tabs (ver.1)

Blink Tabs
Rating:
0/5 (0 votes)
Wendy Clear lessons Tabs too difficult? Try these video lessons and learn fast
                Intro:
e|-------------|
B|-------------|
G|-------------|
D|---5-----3-2-|
A|-3---3-5-----|
E|-------------|

Verse:
e|---------------------------------------------|
B|---------------------------------------------|
G|-555555555555555-----------------------------|
D|-555555555555555-5-3-3-3-3-7-7-7-7-3-3-3-3-5-|
A|-333333333333333-5-3-3-3-3-7-7-7-7-3-3-3-3-5-|
E|-----------------3-1-1-1-1-5-5-5-5-1-1-1-1-3-|

Pre-Chorus: (but I'd play with fire to break the ice...)
e|------------------------------------------------------------------|
B|------------------------------------------------------------------|
G|-----------------5-5-5-5-5-5-5-5------------------5-5-5-5-5-5-5-5-|
D|-5-5-5-5-3-3-3-3-5-5-5-5-5-5-5-5--5-5-5-5-3-3-3-3-5-5-5-5-5-5-5-5-|
A|-5-5-5-5-3-3-3-3-3-3-3-3-3-3-3-3--5-5-5-5-3-3-3-3-3-3-3-3-3-3-3-3-|
E|-3-3-3-3-1-1-1-1------------------3-3-3-3-1-1-1-1-----------------|

Chorus 1: (is there something i'll regret...)
e|-------------------------------------------------------------|
B|-------------------------------------------------------------|
G|-----------------5-5-5-5-------------------------------------|
D|-7-7-7-7-3-3-3-3-5-5-5-5-5-5-5-5--7-7-7-7-3-3-3-3------------|
A|-7-7-7-7-3-3-3-3-3-3-3-3-5-5-5-5--7-7-7-7-3-3-3-3-Intro riff-|
E|-5-5-5-5-1-1-1-1---------3-3-3-3--5-5-5-5-1-1-1-1------------|

Verse 2: Bass Only but tom plays this right before the pre-chorus
e|------------------------------------------------------------------------|
B|------------------------------------------------------------------------|
G|--------------------------------------------------------5-5-5-5-5-5-5-5-|
D|------------------------------------------------------5-5-5-5-5-5-5-5-5-|
A|------------------------------------------------------5-3-3-3-3-3-3-3-3-|
E|------------------------------------------------------3-----------------|

Chorus 2:
e|------------------------------------------------------------------|
B|------------------------------------------------------------------|
G|-----------------5-5-5-5--------------------------5-5-5-5-5-5-5-5-|
D|-7-7-7-7-3-3-3-3-5-5-5-5-5-5-5-5--7-7-7-7-3-3-3-3-5-5-5-5-5-5-5-5-|
A|-7-7-7-7-3-3-3-3-3-3-3-3-5-5-5-5--7-7-7-7-3-3-3-3-3-3-3-3-3-3-3-3-|
E|-5-5-5-5-1-1-1-1---------3-3-3-3--5-5-5-5-1-1-1-1-----------------|

Bridge: (i'll be, movin' on...)
e|----------------------------------------------------------------|
B|----------------------------------------------------------------|
G|---------------------5-5--------------------------------5-5-5-5-|
D|-5-5-------3-3-------5-5-break-5-5-------7-7-------3-3--5-5-5-5-|
A|-5-5-break-3-3-break-3-3-------5-5-break-7-7-break-3-3--3-3-3-3-|
E|-3-3-------1-1-----------------3-3-------5-5-------1-1----------|
PM|.....................................................|
            

comments powered by Disqus
↑ Back to top | Blink Tabs for Wendy Clear. Lyrics for acoustic guitar and electric guitar. Tablatures and chords are parodies/interpretations of the original songs. You may use it for private study, scholarship, research or language learning purposes only