>
 >
Wendy Clear 1

Wendy Clear 1 Guitar Tabs

Blink - Wendy Clear 1 chords, tabs, tablatures, lyrics

Guitar lessons | Add/correct | Request | Top 50 tabs Artists:  A B C D E F G H I J K L M N O P Q R S T U V W X Y Z 0-9

Wendy Clear 1 Guitar Tabs – Blink

CD, Sheet music, Poster

Do you like Wendy Clear 1? Share with your friends now
TabsTabs v2
Wendy Clear



Intro Part 1
e---------|---------|---------|---------|
b---------|---------|---------|---------|
g---0-----|---------|---0-----|---------|
d---------|-0-3---2-|---------|-0-3---2-|
a-3-----3-|---------|-3-----3-|---------|
E---------|---------|---------|---------|

Intro Part 2
With intro 3 times
e---------|---------|---------|---------|
b---------|---------|---------|---------|
g-5-5---55|-5555--5-|-5-5---55|-5555--5-|
d-5-5---55|-5555--5-|-5-5---55|-5555--5-|
a-3-3---33|-3333--3-|-3-3---33|-3333--3-|
E---------|---------|---------|---------|

e---------|---------|---------|---------|
b-1-1---11|-1111--1-|-1-1---11|-1111--1-|
g-2-0---22|-2222--2-|-2-0---22|-2222--2-|
d-3-3---33|-3333--3-|-3-3---33|-3333--3-|
a-3-3---33|-3333--3-|-3-3---33|-3333--3-|
E-1-1---11|-1111--1-|-1-1---11|-1111--1-|

e---------|---------|---------|---------|
b-3-3---33|-3333--3-|-1-1---11|-1111--1-|
g-4-4---44|-4444--4-|-2-0---22|-2222--2-|
d-5-5---55|-5555--5-|-3-3---33|-3333--3-|
a-5-5---55|-5555--5-|-3-3---33|-3333--3-|
E-3-3---33|-3333--3-|-1-1---11|-1111--1-|



Verse
e----------|----------|----------|----------|
b----------|----------|----------|----------|
g-5-555555-|---555555-|---555555-|-5555---2-|
d-5-555555-|---555555-|---555555-|-5555-5-3-|
a-3-333333-|---333333-|---333333-|-3333-5-3-|
E----------|----------|----------|------3-1-|

e----------|----------|----------|----------|
b----------|----------|----------|----------|
g---22-2-2-|-2/3x-2-22|-2-22-2-2-|---------5|
d---33-3-3-|-x--x-3-33|-2-22-2-2-|-3-33--5-5|
a---33-3-3-|-3--x-3-33|-0-00-0-0-|-3-33--5-3|
E---11-1-1-|-1--x-1-11|----------|-1-11--3--|

e----------|----------|----------|----------|
b----------|----6---5-|----------|----------|
g---5-5555-|-5555-555-|---5-555--|-5555-555-|
d---5-5555-|-5555-555-|---5-555--|-5555-555-|
a---3-3333-|-3333-333-|---3-333--|-3333-333-|
E----------|----------|----------|----------|

e----------|----------|----------|----------|
b----------|----------|----------|----------|
g--55-5-55-|-5-55---2-|--22-2-2--|-2/3x-2-22|
d--55-5-55-|-5-55-5-3-|--33-3-3--|-x--x-3-33|
a--33-3-33-|-3-33-5-3-|--33-3-3--|-3--x-3-33|
E----------|------3-1-|--11-1-1--|-1--x-1-11|

e----------|----------|----------|----------|
b----------|----------|----------|----------|
g-2--222-2-|--------5-|---5-5555-|-5555-----|
d-2--222-2-|-3-33-5-5-|---5-5555-|-5555---5-|
a-0--000-0-|-3-33-5-3-|---3-3333-|-3333---5-|
E----------|-1-11-3---|----------|--------3-|


Chorus
e----------|----------|----------|----------|
b----------|----------|----------|----------|
g----------|----------|-5-55555--|-5-55555--|
d-5--555-5-|-3-3--3-3-|-5-55555--|-5-55555--|
a-5--555-5-|-3-3--3-3-|-3-33333--|-3-33333--|
E-3--333-3-|-1-1--1-1-|----------|----------|

e----------|----------|----------|----------|
b----------|----------|----------|----------|
g----------|----------|-5-555555-|-5-555----|
d-5--555-5-|-3-33---3-|-5-555555-|-5-555----|
a-5--555-5-|-3-33---3-|-3-333333-|-3-333----|
E-3--333-3-|-1-11---1-|----------|-------3--|

e----------|----------|----------|
b----------|----------|----------|
g-2----2---|----------|-5--555-5-|
d-2----2---|-3----3-3-|-5--555-5-|
a-0----0---|-3----3-3-|-3--333-3-|
E--------0-|-1----1-1-|----------|

e----------|----------|----------|
b----------|----------|----------|
g----------|-2--222---|----------|
d-5--555-5-|-2--222---|-3--333-3-|
a-5--555-5-|-0--000---|-3--333-3-|
E-3--333-3-|--------0-|-1--111-1-|


Repeat Intro Part 2


Verse (chords relfect what bass plays)
  C5                G5 F5           A5   F5  G5 C5
e----|----|----|---------|----|----|----|---------|
b----|----|----|---------|----|----|----|---------|
g----|----|----|---------|----|----|----|---------|
d----|----|----|---------|----|----|----|---------|
a----|----|----|---------|----|----|----|---------|
E----|----|----|---------|----|----|----|---------|
  C5                          G5 F5           A5
e----|----|----|----|----|---------|----|----|----|
b----|----|----|----|----|---------|----|----|----|
g----|----|----|----|----|---------|----|----|----|
d----|----|----|----|----|---------|----|----|----|
a----|----|----|----|----|---------|----|----|----|
E----|----|----|----|----|---------|----|----|----|
 F5  G5 C5 
e---------|----------|----------|
b---------|----------|----------|
g-------5-|---5-5555-|-5555-55--|
d----5--5-|---5-5555-|-5555-55--|
a----5--3-|---3-3333-|-3333-33--|
E----3----|----------|----------|


Repeat Chorus

End Chorus
e----------|-----------|
b----------|-----------|
g-5-555555-|--5--555-5-|
d-5-555555-|--5--555-5-|
a-3-333333-|--3--333-3-|
E----------|-----------|

Bridge
e------|------|------|------|------|----------|
b------|------|------|------|------|----------|
g------|------|------|------|------|----------|
d-22---|------|-55---|------|------|-33333333-|
a-00---|-33---|-33---|-55---|-77---|-33333333-|
E------|-11---|------|-33---|-55---|-11111111-|
Pm..     ..     ..     ..     .. 

e----------|----------|
b----------|----------|
g----------|----------|
d-5-55555--|-5-55555--|
a-3-33333--|-3-33333--|
E----------|----------|

e------|------|------|------|------|----------|
b------|------|------|------|------|----------|
g------|------|------|------|------|----------|
d-22---|------|-55---|------|------|-33333333-|
a-00---|-33---|-33---|-55---|-77---|-33333333-|
E------|-11---|------|-33---|-55---|-11111111-|
Pm..     ..     ..     ..     ..

Repeat Intro Part 1 X4
With Intro Part 2. Then the first four measures.

Repeat Chorus (Clean)

End Chorus
e----------|----------|
b----------|----------|
g-5-555555-|-5--555---|
d-5-555555-|-5--555---|
a-3-333333-|-3--333---|
E----------|--------3-|

Outro 1 X2
e----------|----------|----------|----------|
b----------|----------|----------|----------|
g----------|----------|-5-555555-|-5555555--|
d-5-555555-|-3-333333-|-5-555555-|-5555555--|
a-5-555555-|-3-333333-|-3-333333-|-3333333--|
E-3-333333-|-1-111111-|----------|----------|

Outro 2
e----------|----------|----------|----------|
b----------|----------|----------|----------|
g----------|----------|-5--------|-(5)------|
d-5--------|-3--------|-5--------|-(5)------|
a-5--------|-3--------|-3--------|-(3)------|
E-3--------|-1--------|----------|----------|

By John Black.
PLease Rate/Comment. I allways like comments.
Love this song!





Comments


Popular Blink tabs & chords
Aliens Exist Tabs
All Of This 2 Tabs
Always 2 Tabs
Ben Wah Balls Tabs
Ben Wah Balls 1 Tabs
Down 1 Tabs
Easy Target 1 Tabs
First Date Tabs
Go 100% Tabs
Going Away To College Tabs


Song lyrics



↑ Back to top | Tablatures and chords are parodies/interpretations of the original songs. You may use it for private study, scholarship, research or language learning purposes only
© 2014 AZChords.com Contact us | Privacy policy | DMCA | Add/correct tabs | Request tabs | Top 50 tabs