>
 >
Waggy 1

Waggy 1 Guitar Tabs

Blink - Waggy 1 chords, tabs, tablatures, lyrics

Guitar lessons | Add/correct | Request | Top 50 tabs Artists:  A B C D E F G H I J K L M N O P Q R S T U V W X Y Z 0-9

Waggy 1 Guitar Tabs – Blink

CD, Sheet music, Poster

Do you like Waggy 1? Share with your friends now
TabsTabs v2
Intro:  X 2
e-------------------------------
b-------------------------------
g-----7-6--7-6------------------
d-----7-7--7-7------------------
a--0----------------------------
e-------------------------------

Riff 1: X 2 (Listen to the song to get the right picking)

  X 14|
e------|----------------------------
b------|----------------------------
g------|----------------------------
d------|----------------------------
a--4---|---7-5-4-5-7-0-5-7-0--------
e------|----------------------------

Intro: X 8

Watching your house shrink away in my rear-view mirror
 As I drive away
 Wishing that I could take back all those words 
That meant nothing that I didn't say 

A5 
I'm trying 
F#5                                     D5 
To be what you want me to be 
A5
But it's so *** hard to keep playing the part 
F#5			D5
Of the fool, week after week. 

CHORUS:

 F#5            D5                       B5
 I think you need some time alone (I think you need some time alone) 
F#5               D5                     A5 
You say you want someone to call your own 
F#5                 D5                   B5 
Open your eyes, you can suck in your pride 
F#5               D5 
You can live your life all on your own. 

Riff 1: X 2 (Listen to the song to get the right picking)

  X 14|
e------|----------------------------
b------|----------------------------
g------|----------------------------
d------|----------------------------
a--4---|---7-5-4-5-7-0-5-7-0--------
e------|----------------------------

Intro X 8

Is this all going to be just another time 
That we play this game? 
I've tried to convince you that things could be different 
But somehow they end up the same 

A5 
But what 
F#5                           D5 
Did you expect from me?      What am I supposed to do? 
A5                                                                               F#5 
You say that you're starting to feel like you're getting lost 
                 D5 
Well, I do, too. 
F#5                D5               B5 
I don't wanna live this lie again (I don't wanna live this lie again) 
F#5             D5           A5 
I know I'll get it right but I don't know when 
F#5              D5                B5 
I'll open my eyes, I've got something in side 
F#5          D5                               A5 
I'll just jack off in my room until then. 

Riff #4: 

e--------------------------
b--------------------------
g--2-2-------------2-2-----
d--2-2-------------2-2-----
a--0-0-------------0-0-----
e--------------------------
Pm.........................

Riff #5: X 2
----------------------------------------------
---6---9---7---6---7---9-------7---7---------- 
---------------------------6-----------6------
---------------------------------------------- 
---------------------------------------------- 
---------------------------------------------- 

Riff 1: X 2 

  X 14|
e------|----------------------------
b------|----------------------------
g------|----------------------------
d------|----------------------------
a--4---|---7-5-4-5-7-0-5-7-0--------
e------|----------------------------


It's never over 'til it's done 
And I don't think that you're the one 

Intro: X8 

It's never over 'til it's done 
And I don't think that you're the one

 Intro: X4 

End with A5.





Comments


Popular Blink tabs & chords
All The Small Things Tabs
Anthem Part Two Tabs
Degenerate Tabs
Dont Leave Me Tabs
Everytime I Look For You Tabs
Going Away To College 1 Tabs
Man Overboard Tabs
Pathetic 1 Tabs
Pathetic 2 Tabs
Untitled Tabs


Song lyrics



↑ Back to top | Tablatures and chords are parodies/interpretations of the original songs. You may use it for private study, scholarship, research or language learning purposes only
© 2014 AZChords.com Contact us | Privacy policy | DMCA | Add/correct tabs | Request tabs | Top 50 tabs