» » »

Blink, Waggy Tabs (ver.1)

Artists:  A B C D E F G H I J K L M N O P Q R S T U V W X Y Z # 

Waggy Tabs (ver.1)

Blink Tabs
 Rating:
4/5 (4 votes)
Waggy lessons Tabs too difficult? Try these video lessons and learn fast
                PROPS GO TO: Eric

Intro 1/verse
e)----------------
B)----------------
G)----------------
D)----------------
A)---7---7---7----
E)--5-5-5-5-5-5---

Intro 2
e)-----------------------------
B)-----------------------------
G)-----------------------------
D)-----------------------------
A)55555555-7-5-4-5-7---5-7-----
E)------------------5-5---55555

Pre Chorus
e)-----------------------
B)-----------------------
G)--------------------7--
D)-7----------------4-7-7
A)-7-HOLD-----------4-5-7
E)-5----------------2---5
---I'm Tryyyyyin...-

Chorus
e)---------------------
B)---------------------
G)-----777-------------
D)-444-777-777---------
A)-444-555-777---------
E)-222-----555---------
---I think you need some time alone

Bridge
e)>--------------------
B)>--------------------
G)>Palm ----77---------
D)>Mute--77-77---------
A)>------77-55---------
E)>------55------------

Guitar solo
e)
B)
G)
D)
A)-0h4h5-55-0--Repeat
E)
It goes something like that
xxxxxxxxxxxxxxxxxxxxxxxxxxxxxxxxxxxxxxxxxxxxxxx
x There is a bass solo in there somewhere to  x
xxxxxxxxxxxxxxxxxxxxxxxxxxxxxxxxxxxxxxxxxxxxxxx

Well that's it, listen to the actual 
song for timeing purposes.  I mean I can't
spoon feed you a**holes. Also there is 
this kid named Brandon who has no unit of
sexuality (I.E./ a penis) so if you see him on
the street be sure to laugh and point ok. 
Also lets give it up for Blink for having 
a hit, huh?
            
Submit corrections

comments powered by Disqus
↑ Back to top | Blink Tabs for Waggy. Lyrics for acoustic guitar and electric guitar. Tablatures and chords are parodies/interpretations of the original songs. You may use it for private study, scholarship, research or language learning purposes only