» » »

Blink, Stay Together For The Kids Tabs (ver.3)

Artists:  A B C D E F G H I J K L M N O P Q R S T U V W X Y Z # 

Stay Together For The Kids Tabs (ver.3)

Blink Tabs
 Rating:
4/5 (4 votes)
Stay Together For The Kids lessons Tabs too difficult? Try these video lessons and learn fast
                Main Riff
E||-----------------------------------------------------------------------------||  
B||-----------------------------------------------------------------------------||
G||-----------------------------------------------------------------------------||
D||---0---7-0---4-0---0---7-0---4-0---0----4-0---5-0---2-----4-5-4-2-0----------||
A||-5---5-----5-----4---4-----4-----2----2-----2-----0---0----------------------|| x2
E||-----------------------------------------------------------------------------||

Verso

E||-----------------------------------------------------------------------------||
B||-----------------------------------------------------------------------------||
G||----7----7----7----7-----7----7----7-----7-----------------------------------||
D||----7----7----7----7-----7----7----7-----7-----------------------------------||
A||55----55---55---55-----------------------------------------------------------||
E||----------------------77---77---77----77-------------------------------------||
                                                                              

E||-----------------------------------------------------------------------------||
B||-----------------------------------------------------------------------------||
G||----7----7----7----7----9----9----6-----7------------------------------------||
D||----7----7----7----7----7----7----7-----7------------------------------------||
A||-00---00---00---00---00---00---00---000--------------------------------------||
E||-----------------------------------------------------------------------------||  x2

Coro
E||--------------------------------------------------------------------------||
B||--------------------------------------------------------------------------||
G||--------------------------------------------------------------------------||  
D||-555555555555555---4444444444444444---------------------------------------||
A||-555555555555555---5555555555555555---------------------------------------||
E||-333333333333333---2222222222222222-0-------------------------------------|| x4

end on:                                                          
||-----||
||-----||
||--7--||
||--7--||
||--5--||
||-----||
            
Submit corrections

comments powered by Disqus
↑ Back to top | Blink Tabs for Stay Together For The Kids. Lyrics for acoustic guitar and electric guitar. Tablatures and chords are parodies/interpretations of the original songs. You may use it for private study, scholarship, research or language learning purposes only