>
 >
Stay Together For The Kids

Stay Together For The Kids Guitar Tabs

Blink - Stay Together For The Kids chords, tabs, tablatures, lyrics

Guitar lessons | Add/correct | Request | Top 50 tabs Artists:  A B C D E F G H I J K L M N O P Q R S T U V W X Y Z 0-9

Stay Together For The Kids Guitar Tabs – Blink

CD, Sheet music, Poster

Do you like Stay Together For The Kids? Share with your friends now
TabsTabs v2Tabs v3
Stay Together For the Kids


Intro X2
e---------------------------------|---------------------------------|
b---------------------------------|---------------------------------|
g---------------------------------|---------------------------------|
d---0---7---0-4-0---0---7-0---4-0-|---0---4-0---5-0---2---4-5-4-2-0-|
a-5---5---5-------4---4-----4-----|-2---2-----2-----0---0-----------|
E---------------------------------|---------------------------------|

Verse X2
e----------------------------------|---------------------------------|
b----------------------------------|---------------------------------|
g-----7-------7-------7--------7---|-----7-------7-------7-------7---|
d-----7-------7-------7--------7---|-----7-------7-------7-------7---|
a-5-5---5-5-5---5-5-5----5-5-5---5-|---------------------------------|
E----------------------------------|-7-7---7-7-7---7-7-7---7-7-7-----|

Chorus X3
e------------------|------------------|
b------------------|------------------|
g------------------|------------------|
d------------------|------------------|
a-5555555555555555-|-5555555555555555-|
E-3333333333333333-|-2222222222222202-|

Continued Chorus X1
e------------------|------------------|
b------------------|------------------|
g------------------|------------------|
d------------------|------------------|
a-5555555555555555-|-5555555555555555-|
E-3333333333333333-|-2222222222222222-|


Repeat Intro

Verse #2  X2
e---------------------|---------------------|
b---------------------|---------------------|
g---------------------|---------------------|
d---7---7-----7-----7-|---7---7-----7-----7-|
a-5---5-----5-----5---|-----5-----5-----5---|
E---------------------|-7-------------7-----|

e---------------------|---------------------|
b---------------------|---------------------|
g---------------------|---------------------|
d---7---7-----7-----7-|---7---7-----7-----7-|
a-----5-----------5---|-----7-----7-----7---|
E-5---------5---5-----|-5-------5-----5-----|


Repeat Chorus X3

Chorus Continued
e------------------|------------------|
b------------------|------------------|
g------------------|------------------|
d------------------|------------------|
a-5555555555555555-|-5555555555555550-|
E-3333333333333333-|-2222222222222220-|


Interlude X4
   Gtr 1
||e-2~-------------------------------|-0~-------------------------------|
||b-3~-------------------------------|-3~--------------5~---------------|
||g-2~-------------------------------|-2~--------------2~---------------|
||d-0~-------------------------------|-0~--------------2~---------------|
||a----------------------------------|----------------------------------|
||E----------------------------------|----------------------------------|
||
||Piano Arranged For Guitar X4
||e---10--10--10--10--10--10--10--10-|---10--10--10--10--10--10--10--10-|
||b-----10------10------10------10---|-----10------10------10------10---|
||g-7---------------7----------------|-7---------------7----------------|
||d----------------------------------|----------------------------------|
||a----------------------------------|----------------------------------|
||E----------------------------------|----------------------------------|


More Piano 
This comes in on the third time of the above stuff.
 And is only played once
e---------|---------|---------|---------|
b---------|---------|---------|---------|
g---2-0---|-0-------|---2-0---|-2-------|
d-0-----4-|-----2---|-0-----4-|-----2---|
a---------|---------|---------|---------|
E---------|---------|---------|---------|

This comes in on the fourth time of the above stuff.
  Fdbk<<<<<<<<<
e-0-|---|---|---|
b---|---|---|---|
g---|---|---|---|
d---|---|---|---|
a---|---|---|---|
E---|---|---|---|

Repeat Chorus X4

Outro
Repeat Chrous Till fade with
             .Fade Starts
e-----|-----|-----|-----|----0-2-----|----0-2-----|
b-----|-3---|-3---|-3---|-3--3---3---|-3--3---3---|
g---2-|---2-|---2-|---2-|----2-----2-|----2-----2-|
d-----|-----|-----|-----|------------|------------|
a-----|-----|-----|-----|------------|------------|
E-----|-----|-----|-----|------------|------------|

Contin.                                 .Fade Out
e-------0----|----0-2-----|-------0----|
b-3-----3----|-3--3---3---|-3-----3----|
g----2-----2-|----2-----2-|----2-----2-|
d------------|------------|------------|
a------------|------------|------------|
E------------|------------|------------|

please rate/comment





Comments


Popular Blink tabs & chords
Aliens Exist Tabs
Carousel 1 Tabs
Carousel Intro Buddha Tabs
Enthused Tabs
Feeling This 1 Tabs
Feeling This 2 Tabs
Go 1 Tabs
I Miss You 1 Tabs
Pathetic Tabs
Stay Together For The Kids 2 Tabs


Song lyrics



↑ Back to top | Tablatures and chords are parodies/interpretations of the original songs. You may use it for private study, scholarship, research or language learning purposes only
© 2014 AZChords.com Contact us | Privacy policy | DMCA | Add/correct tabs | Request tabs | Top 50 tabs