>
 >
Shut Up

Shut Up Guitar Tabs

Blink - Shut Up chords, tabs, tablatures, lyrics

Guitar lessons | Add/correct | Request | Top 50 tabs Artists:  A B C D E F G H I J K L M N O P Q R S T U V W X Y Z 0-9

Shut Up Guitar Tabs – Blink

CD, Sheet music, Poster

Do you like Shut Up? Share with your friends now
TabsTabs v2

All Guitars Standard tuning

Guitar 1            Intro                                
e-5-5-5-5-5-5-5-5-||-------------------|-------------------||
b-x-x-x-x-x-x-x-x-||o------5-------5---|-----5-------5----o||
g-2-2-2-2-2-2-2-2-||-----2---2---2---2-|---2---2---2---2---||
d-----------------||-------------------|---------0---------||
a-----------------||o--0-------0-------|-4----------------o||
E-----------------||-------------------|-------------------||
Guitar 2						   ||
e-----------------||-------------------|-------------------||
b-----------------||o------------------|------------------o||
g-----------------||-------------------|---------7-7-7-7---||
d-----------------||---7-7-7-7-7-7-7-7-|---------7-7-7-7---||
a-----------------||o--7-7-7-7-7-7-7-7-|-4-4-4-4-5-5-5-5--o||
E-----------------||---5-5-5-5-5-5-5-5-|-5-5-5-5-----------||



Verse     Bass Arranged For Guitar
e-------||------------------|------------------||
b-------||------------------|------------------||
g-2~----||------------------|------------------||
d-2~----||------------------|------------------|| X4
a-0~----||-0-000-000-000-00-|-4-444-445-555-55-|| 
E-------||------------------|------------------||

Guitar 1
e-----------------|-------------------||
b-----5-------5---|-----5-------5-----||
g---2---2---2---2-|---2---2---2---2---||
d-----------------|---------0---------||
a-0-------0-------|-4-----------------||
E-----------------|-------------------||
Guitar 2		              ||
e-----------------|-------------------||
b-----------------|-------------------||
g-2---------------|-------------------||
d-2---------------|-------------------||
a-0---------------|-------------------||
E-----------------|-------------------||

Guitar 1
e-----------------|-------------------||
b-----5-------5---|-----5-------5----o||
g---2---2---2---2-|---2---2---2---2---||
d-----------------|---------0---------||
a-0-------0-------|-4----------------o||
E-----------------|-------------------||
Guitar 2			      ||
e-----------------|-------------------||
b-----------------|------------------o||
g-----------------|---------7-7-7-7---||
d-7-7-7-7-7-7-7-7-|---------7-7-7-7---||
a-7-7-7-7-7-7-7-7-|-4-4-4-4-5-5-5-5--o||
E-5-5-5-5-5-5-5-5-|-5-5-5-5-----------||


*Repeat Verse    Bass Arranged For Guitar*


Chorus
e-----------------|-----------------------|
b-----------------|-----------------------|
g-----------------|---------/14-14141414--|
d-12-1212121212---|-7-7777---x--x-x-x-x-14| x2
a-12-1212121212---|-7-7777--/12-12121212x-|
E-10-1010101010---|-5-55550-------------12|
						
                   First ending          Second ending
e-----------------|-----------------|  |--------------||
b-----------------|-----------------|  |--------------||
g-----------------|-----------------|  |--------------||
d-9-9-9-9-9-9-9-9-|-1212121212121212|X2|-1212121212---||
a-9-9-9-9-9-9-9-9-|-1212121212121212|  |-1212121212---||
E-7-7-7-7-7-7-7-7-|-1010101010101010|  |-1010101010---||


Verse two
e-----------------|-----------------||
b-----------------|-----------------||
g-2-2-2-2-2-2-2-2-|-6-6-6-6-7-7-7-7-||
d-2-2-2-2-2-2-2-2-|-6-6-6-6-7-7-7-7-|| X4
a-0-0-0-0-0-0-0-0-|-4-4-4-4-5-5-5-5-||
E-----------------|-----------------||

*Repeat Chorus*

Bridge- clean - Guitar 1
e-0-0-0-0-0-0-0-0-|-0-0-0-0-0-0-0-0-||
b-x-x-x-x-x-x-x-x-|-x-x-x-x-x-x-x-x-||
g-9-9-9-9-9-9-9-9-|-111111117-7-7-7-||
d-x-x-x-x-x-x-x-x-|-x-x-x-x-x-x-x-x-|| X6
a-7-7-7-7-7-7-7-7-|-9-9-9-9-5-5-5-5-||
E-----------------|-----------------||
On sixth time   Guitar 2
e-----------------|-----------------||
b-----------------|-----------------||
g-----------------|-----9b----9-----||
d-----------------|-----x-----x-----||
a-----------------|-7---7b----7-----||
E-----------------|-----------------||

Guitar Solo
guitar 1
e---------------------------------|----------------------------------|
b---------------------------------|----------------------------------|
g-14141414141414141414141414141414|-13131313131313131111111111111111/|
d-x-x-x-x-x-x-x-x-x-x-x-x-x-x-x-x-|-x-x-x-x-x-x-x-x-x-x-x-x-x-x-x-x--|
a-12121212121212121212121212121212|-11111111111111119-9-9-9-9-9-9-9-/|
E---------------------------------|----------------------------------|

e---------------------------------|----------------------------------|
b---------------------------------|----------------------------------|
g-18181818181818181818181818181818|-16161616161616161414141414141414-|
d-x-x-x-x-x-x-x-x-x-x-x-x-x-x-x-x-|-x-x-x-x-x-x-x-x-x-x-x-x-x-x-x-x--|
a-16161616161616161616161616161616|-14141414141414141212121212121212-|
E---------------------------------|----------------------------------|

e---------------------------------|----------------------------------|
b---------------------------------|----------------------------------|
g-14141414141414141414141414141414|-13131313131313131111111111111111/|
d-x-x-x-x-x-x-x-x-x-x-x-x-x-x-x-x-|-x-x-x-x-x-x-x-x-x-x-x-x-x-x-x-x--|
a-12121212121212121212121212121212|-11111111111111119-9-9-9-9-9-9-9-/|
E---------------------------------|----------------------------------|

e---------------------------------|----------------------------------||
b---------------------------------|----------------------------------||
g-18181818181818181818181818181818|-16161616161616161919191919191919-||
d-x-x-x-x-x-x-x-x-x-x-x-x-x-x-x-x-|-x-x-x-x-x-x-x-x-x-x-x-x-x-x-x-x--||
a-16161616161616161616161616161616|-14141414141414141717171717171717-||
E---------------------------------|----------------------------------||

*Repeat Chorus*

*Repeat Intro*

End on
e-------------||
b-------------||
g-2~----------||
d-2~----------||
a-0~----------||
E-------------||

By John Black





Comments


Popular Blink tabs & chords
Always 2 Tabs
Boring Tabs
Dont Leave Me Tabs
Enthused Tabs
Going Away To College Tabs
Obvious 100% Tabs
Stay Together For The Kids 1 Tabs
Stockholme Syndrome Tabs
Story Of A Lonely Guy 1 Tabs
You Fuked Up My Life Tabs


Song lyrics



↑ Back to top | Tablatures and chords are parodies/interpretations of the original songs. You may use it for private study, scholarship, research or language learning purposes only
© 2014 AZChords.com Contact us | Privacy policy | DMCA | Add/correct tabs | Request tabs | Top 50 tabs