» » »

Blink, Shut Up Tabs (ver.2)

Artists:  A B C D E F G H I J K L M N O P Q R S T U V W X Y Z # 

Shut Up Tabs (ver.2)

Blink Tabs
 Rating:
4/5 (4 votes)
Shut Up lessons Tabs too difficult? Try these video lessons and learn fast
1
                e-|----------------------------------------------
B-|----------------------------------------------
G-|----------------------------------------------
D-|-7-7-7-7-7-7-7--------------------------------
A-|----------------------------------------------
E-|----------------------------------------------

intro2 x4
e-|----------------------------------------------
B-|----------------------------------------------
G-|------9-------9------9---------9--------------
D-|--7-7---7-7-7---------------------------------
A-|----------------------------------------------
E-|----------------9-9------10-10----------------

Verse1
After "This *** has got to stop"

e-|----------------------------------------------
B-|----------------------------------------------
G-|------9-------9------9---------9--------------
D-|--7-7---7-7-7---------------------------------
A-|----------------------------------------------
E-|----------------9-9------10-10----------------

"I run away"
Guitar 1(x2)
e-|----------------------------------------------
B-|----------------------------------------------
G-|------9-------9------9---------9--------------
D-|--7-7---7-7-7---------------------------------
A-|----------------------------------------------
E-|----------------9-9------10-10----------------

Guitar 2(x2)
e-|----------------------------------------------
B-|----------------------------------------------
G-|----------------------------------------------
D-|--5-5-5-5-5-5-5-5--11-11-11-11-12-12-12-12----
A-|--5-5-5-5-5-5-5-5--11-11-11-11-12-12-12-12----
E-|--7-7-7-7-7-7-7-7--9--9--9--9--10-10-10-10----

Verse2
bass line only

Chorus1(x2)
"I´ll never.."
e-|----------------------------------------------
B-|----------------------------------------------
G-|-------------------------14-14-14-14-14-------
D-|--5-5-5-5-5----5-5-5-5-5-14-14-14-14-14-------
A-|--5-5-5-5-5----5-5-5-5-5-12-12-12-12-12-------
E-|--7-7-7-7-7----7-7-7-7-7----------------------

Chorus2
"Im not coming home"
x2
e-|---------------------------------------------
B-|---------------------------------------------
G-|---------------------------------------------
D-|-9-9-9-9-9-9-9-9-12-12-12-12-12-12-12-12-----
A-|-9-9-9-9-9-9-9-9-12-12-12-12-12-12-12-12-----
E-|-7-7-7-7-7-7-7-7-10-10-10-10-10-10-10-10-----

Verse2(x4)
e-|----------------------------------------------
B-|----------------------------------------------
G-|----------------------------------------------
D-|--5-5-5-5-5-5-5-5--11-11-11-11-12-12-12-12----
A-|--5-5-5-5-5-5-5-5--11-11-11-11-12-12-12-12----
E-|--7-7-7-7-7-7-7-7--9--9--9--9--10-10-10-10----

Chorus1(x2)
"I´ll never.."
e-|----------------------------------------------
B-|----------------------------------------------
G-|-------------------------14-14-14-14-14-------
D-|--5-5-5-5-5----5-5-5-5-5-14-14-14-14-14-------
A-|--5-5-5-5-5----5-5-5-5-5-12-12-12-12-12-------
E-|--7-7-7-7-7----7-7-7-7-7----------------------

Chorus2
"Im not coming home"
x2
e-|---------------------------------------------
B-|---------------------------------------------
G-|---------------------------------------------
D-|-9-9-9-9-9-9-9-9-12-12-12-12-12-12-12-12-----
A-|-9-9-9-9-9-9-9-9-12-12-12-12-12-12-12-12-----
E-|-7-7-7-7-7-7-7-7-10-10-10-10-10-10-10-10-----

Bridge
"I'll run away"
(W/ bypass)
e-|---------------------------------------------
B-|---------------------------------------------
G-|-9-9-9-9-9-9-9-9-11-11-11-11-7-7-7-7---------
D-|-9-9-9-9-9-9-9-9-11-11-11-11-7-7-7-7---------
A-|-7-7-7-7-7-7-7-7-9--9--9--9--5-5-5-5---------
E-|---------------------------------------------

Bridge2
e-|----------------------------------------------
B-|----------------------------------------------
G-|-14------13------7-----/18-----16------14-----
D-|---(x8)----(x4)----(x4)---(x8)----(x4)---(x4)-
A-|-12------11------9-----/16-----14------12-----
E-|----------------------------------------------

e-|----------------------------------------------
B-|----------------------------------------------
G-|-14------13------7-----/18-----16------19-----
D-|---(x8)----(x4)----(x4)---(x8)----(x4)---(x4)-
A-|-12------11------9-----/16-----14------17-----
E-|----------------------------------------------

Repeat Chorus

"I think its time for me to leave"(x4)
e-|----------------------------------------------
B-|----------------------------------------------
G-|------9-------9------9---------9--------------
D-|--7-7---7-7-7---------------------------------
A-|----------------------------------------------
E-|----------------9-9------10-10----------------
            
Submit corrections

comments powered by Disqus
↑ Back to top | Blink Tabs for Shut Up. Lyrics for acoustic guitar and electric guitar. 1 Tablatures and chords are parodies/interpretations of the original songs. You may use it for private study, scholarship, research or language learning purposes only