>
 >
Please Take Me Home

Please Take Me Home Guitar Tabs

Blink - Please Take Me Home chords, tabs, tablatures, lyrics

Guitar lessons | Add/correct | Request | Top 50 tabs Artists:  A B C D E F G H I J K L M N O P Q R S T U V W X Y Z 0-9

Please Take Me Home Guitar Tabs – Blink

CD, Sheet music, Poster

Do you like Please Take Me Home? Share with your friends now
TabsTabs v2Tabs v3



      Intro/Verse X2
e----|------------------|-------------------|-------------------|-------------------|
b----|------------------|-------------------|-------------------|-------------------|
g--3/|-8888888888888888-|-88888888\44444444/|(4)888888888888888-|-88888888\44444444/|
d--x-|-xxxxxxxxxxxxxxxx-|-xxxxxxxx-xxxxxxxx-|---xxxxxxxxxxxxxxx-|-xxxxxxxx-xxxxxxxx-|
a--1/|-6666666666666666-|-66666666\22222222/|(2)666666666666666-|-66666666\22222222/|
E----|-7777777777777777-|-77777777----------|---777777777777777-|-77777777----------|

With above intro X4 (everything PM)
|------------------|-------------------|-------------------|-------------------|
|------------------|-------------------|-------------------|-------------------|
|------------------|-------------------|-------------------|-------------------|
|--444444466666666-|-------------------|-REPEAT---REAPEAT--|-REPEAT---REPEAT---|
|--222222244444444-|-66666666-22222222-|-------------------|-------------------|
|------------------|-44444444-00000000-|-------------------|-------------------

Pre-Chorus
e----------|----------|----------|----------|------------------|-------------------|
b----------|----------|----------|----------|------------------|-------------------|
g----------|-44444----|----------|----------|------------------|-33333333----------|
d-22222----|-44444----|-66666----|-44444----|-2222222222222222-|-33333333----------|
a-22222----|-22222----|-66666----|-44444----|-2222222222222222-|-11111111----------|
E-00000----|----------|-44444----|-22222----|-0000000000000000-|----------2--------|

                                 |----------|------------------|-------------------|
                                 |----------|------------------|-------------------|
                                 |----------|------------------|-------------------|
                                 |-44444----|-2222222222222222-|-44444444-4--------|
                                 |-44444----|-2222222222222222-|-xxxxxxxx-x--------|
                                 |-22222----|-0000000000000000-|-22222222-2--------|

Chorus 1 
e------------------|-------------------|------------------|------------------|
b------------------|-------------------|------------------|------------------|
g-44444444---------|-------------------|-44444444---------|------------------|
d-4444444444444444-|-66666666222222222-|-4444444444444444-|-666666662--------|
a-2222222211111111-|-66666666222222222-|-2222222211111111-|-666666662--------|
E------------------|-44444444000000000-|------------------|-444444440--------|


Repeat Intro/Verse

Repeat Pre-Chorus


Chorus 2
e------------------|-------------------|------------------|------------------|
b------------------|-------------------|------------------|------------------|
g-44444444---------|-------------------|-44444444---------|------------------|
d-4444444444444444-|-66666666222222222-|-4444444444444444-|-6666666622222222-|
a-2222222211111111-|-66666666222222222-|-2222222211111111-|-6666666622222222-|
E------------------|-44444444000000000-|------------------|-4444444400000000-|


Repeat Chorus 1


Interlude X4
e------------------|------------------|
b------------------|------------------|
g------------------|------------------|
d------------------|-9---9------------|
a-9---9---7---7----|-6---6---7---7----|
E-7---7---9---9----|-7---7---7---7----|

Contin. X2
e------------------|------------------|
b------------------|------------------|
g------------------|------------------|
d-4444444422222222-|-11111111---11111-|
a-2222222244444444-|---------222------|
E------------------|------------------|
Pm................   ...........


Solos Time
e------------------|------------------|------------------|------------------|
b------------------|------------------|------------------|------------------|
g-4444444433333333/|-888888886--4--6--|-4444444433333333/|-8888888866666666/|
d-xxxxxxxxxxxxxxxx-|-xxxxxxxxx--x--x--|-xxxxxxxxxxxxxxxx-|-xxxxxxxxxxxxxxxx-|
a-2222222211111111/|-666666664--2--4--|-2222222211111111/|-6666666644444444/|
E------------------|------------------|------------------|------------------|

Contin.
e------------------|------------------|------------------|------------------|
b------------------|------------------|------------------|------------------|
g-8--8-88-8--8-88-8|----8-88\4---4444-|-8--8-88-8--8-88-8|---8--88\4--444-4-|
d-x--x-xx-x--x-xx-x|----x-xx-x---xxxx-|-x--x-xx-x--x-xx-x|---x--xx-x--xxx-x-|
a-6--6-66-6--6-66-6|----6-66\2---2222-|-6--6-66-6--6-66-6|---6--66\2--222-2-|
E------------------|------------------|------------------|------------------|

Contin.
e------------------|
b------------------|
g------------------|
d------------------|
a-4444444444444444-|
E-2222222222222222-|
PM................

Repeat Chorus 2 X2


Outro
e------------------|-------------------|------------------|------------------|
b------------------|-------------------|------------------|------------------|
g-4-444-4----------|-------------------|-4-4-444----------|------------------|
d-4-444-44--4-4446-|---6-6662-2-2-2222-|-4-4-4444--4-4444-|-6-6-6662---------|
a-2-222-21--1-1116-|---6-6662-2-2-2222-|-2-2-2221--1-1111-|-6-6-6662---------|
E----------------4-|---4-4440-0-0-0000-|------------------|-4-4-4440---------|

e------------------|-------------------|------------------|------------------|
b------------------|-------------------|------------------|------------------|
g-8-8-8888--8-8888-|---8-8888\4-4-4444/|-8-8-8888--8-8888-|---8-8884---------|
d-x-x-xxxx--x-xxxx-|---x-xxxx-x-x-xxxx-|-x-x-xxxx--x-xxxx-|---x-xxxx---------|
a-6-6-6666--6-6666-|---6-6666\2-2-2222/|-6-6-6666--6-6666-|---6-6662---------|
E------------------|-------------------|------------------|------------------|

By John Black
PLease rate/Comment





Comments


Popular Blink tabs & chords
All Of This Tabs
All The Small Things Tabs
Always 1 Tabs
Anthem 1 Tabs
Damnit Tabs
Degenerate Tabs
Go 1 Tabs
The Rock Show 1 Tabs
Waggy Tabs
Whats May Age Agin Tabs


Song lyrics



↑ Back to top | Tablatures and chords are parodies/interpretations of the original songs. You may use it for private study, scholarship, research or language learning purposes only
© 2014 AZChords.com Contact us | Privacy policy | DMCA | Add/correct tabs | Request tabs | Top 50 tabs