>
 >
Please Take Me Home 1

Please Take Me Home 1 Guitar Tabs

Blink - Please Take Me Home 1 chords, tabs, tablatures, lyrics

Guitar lessons | Add/correct | Request | Top 50 tabs Artists:  A B C D E F G H I J K L M N O P Q R S T U V W X Y Z 0-9

Please Take Me Home 1 Guitar Tabs – Blink

CD, Sheet music, Poster

Do you like Please Take Me Home 1? Share with your friends now
TabsTabs v2Tabs v3
Intro:
       e------------------------------------------------------------ 
       b------------------------------------------------------------ 
       g--------8--8--8--8-8-8--8--8--8-8-8--8-8-8-8-8-8-8-8\4-4-4-4 
       d------------------------------------------------------------ 
       a---2/6--6--6--6--6-6-6--6--6--6-6-6--6-6-6-6-6-6-6-6\2-2-2-2 
       e------------------------------------------------------------
       
Verse:  Play this with intro during verse     
		(Oh no it happened again...)
		Progress through the following:
       e-------------------------------- 
       b-------------------------------- 
       g---4-----6------8-------------9- 
       d---4-----6------8-------9-----9- 
       a---2-----4------6-------9-----7- 
       e------------------------7-------

Prechorus :  (She's unstopable, unpredictable.........)
       e------------------------------------- 
       b-------------------------------------
       g-----------4-4-4-4------------------- 
       d--4-4-4-4--4-4-4-4--6-6-6-6--4-4-4-4- 
       a--4-4-4-4--2-2-2-2--6-6-6-6--4-4-4-4- 
       e--2-2-2-2-----------4-4-4-4--2-2-2-2-  
 	 
	(wrong..............)
       e------------------------ 
       b------------------------ 
       g---4-4-4-4-4-4-4-4--3--- 
       d---4-4-4-4-4-4-4-4--3--- 
       a---2-2-2-2-2-2-2-2--1--- 
       e----------------------2-

Chorus:	(Please take   me home,    too late    it's gone)
       e--------------------------------------------- 
       b--------------------------------------------- 
       g--4-4-4-4-4--3-3-3-3-3----------------------- 
       d--4-4-4-4-4--3-3-3-3-3--6-6-6-6-6--2-2-2-2-2- 
       a--2-2-2-2-2--1-1-1-1-1--6-6-6-6-6--2-2-2-2-2- 
       e------------------------4-4-4-4-4--0-0-0-0-0-  

Bridge:     (Why did we have to go date?)
       e------------------------------ 
       b------------------------------ 
       g--4-4--6-6--8-8--9-9---------- 
       d--4-4--6-6--8-8--9-9---------- 
       a--2-2--4-4--6-6--7-7---------- 
       e------------------------------
 	 
	      ( Be strong when things fall apart )
		Palm mute the following progression:
       e-------------------------------------- 
       b-------------------------------------- 
       g---4----6----8------------------------ 
       d---4----6----8------9---then >>>-x-xx- 
       a---2----4----6------9------------8-88- 
       e--------------------7-----------------

		(Let's go!!)
       e------------------------------------------ 
       b------------------------------------------ 
       g--4-4-4-4-4-4-4-4-4-3-3-3-8-8-8-8-8-6-4-6- 
       d------------------------------------------   x2 
       a--2-2-2-2-2-2-2-2-2-1-1-1-6-6-6-6-6-4-2-4- 
       e------------------------------------------  

		Then:
       e----------------------------------------- 
       b----------------------------------------- 
       g---8--8--8-8--8--8--8--8-8--8--8--8-8--4~ 
       d-----------------------------------------   x2 
       a---6--6--6-6--6--6--6--6-6--6--6--6-6--2~ 
       e-----------------------------------------

		Then:
       e---------------------- 
       b---------------------- 
       g--4-4-4-4-4-4-4-4-4-4-
       d--4-4-4-4-4-4-4-4-4-4- 
       a--2-2-2-2-2-2-2-2-2-2- 
       e----------------------





Comments


Popular Blink tabs & chords
Carousel Chords
A New Hope Tabs
Down 1 Tabs
First Date 2 Tabs
Go 1 Tabs
I Miss You 1 Tabs
Not Now 1 Tabs
Story Of A Lonely Guy 1 Tabs
What Went Wrong 1 Tabs
Whats My Age Again Tabs


Song lyrics



↑ Back to top | Tablatures and chords are parodies/interpretations of the original songs. You may use it for private study, scholarship, research or language learning purposes only
© 2014 AZChords.com Contact us | Privacy policy | DMCA | Add/correct tabs | Request tabs | Top 50 tabs