» » »

Blink, Heres Your Letter Tabs (ver.3)

Artists:  A B C D E F G H I J K L M N O P Q R S T U V W X Y Z # 

Heres Your Letter Tabs (ver.3)

Blink Tabs
Rating:
0/5 (0 votes)
Heres Your Letter lessons Tabs too difficult? Try these video lessons and learn fast
                BLINK 182 - self titled
"Here's Your Letter"

This song uses standard tuning: EBGDAe

intro

E|---------------------------------------------
B|---------------------------------------------
G|-------7777--------4444----------7777--------
D|-4444--7777--7777--4444----4444--7777--7777--
A|-4444--5555--7777--2222----4444--5555--7777--
E|-2222--------5555----------2222--------5555--


E|-
B|-
G|-
D|- 4
A|- 4 
E|- 2

verse

D|--------------------------------------------------------------
A|--------------------------------------------------------------
E|-2222-2--4444-4--5555-5--7777-7--2222-2--4444-4--55555555555--


D|-------------------------------------------------------7------------
A|-44444444--6666666--7777777--9999999--444444--777777---7--let ring--
E|-22222222--4444444--5555555--7777777--222222--444444---5------------

chorus

E|-----------------------------------------------------------
B|-----------------------------------------------------------
G|------666-------------777777--------666--------------------
D|-777--666--444--777---777777---777--666--666--7------------
A|-777--444--444--777---555555---777--444--666--7--let ring-- 
E|-555-------222--555------------555-------444--5------------

intro

E|---------------------------------------------
B|---------------------------------------------
G|-------7777--------4444----------7777--------
D|-4444--7777--7777--4444----4444--7777--7777--
A|-4444--5555--7777--2222----4444--5555--7777--
E|-2222--------5555----------2222--------5555--

verse

D|--------------------------------------------------------------
A|--------------------------------------------------------------
E|-2222-2--4444-4--5555-5--7777-7--2222-2--4444-4--55555555555--


D|-------------------------------------------------------7------------
A|-44444444--6666666--7777777--9999999--444444--777777---7--let ring--
E|-22222222--4444444--5555555--7777777--222222--444444---5------------

chorus

E|-----------------------------------------------------------
B|-----------------------------------------------------------
G|------666-------------777777--------666--------------------
D|-777--666--444--777---777777---777--666--666--7------------
A|-777--444--444--777---555555---777--444--666--7--let ring-- 
E|-555-------222--555------------555-------444--5------------

bridge

E|-------------------------------
B|-------------------------------
G|--7-------------------7--------
D|--7--x 16---7---------7--x 16--
A|--5---------7--x 16---5--------
E|------------5------------------

E|----------------------------------------
B|----------------------------------------
G|----------------------------------------
D|--44444444--66666666--7777777777777777--
A|--44444444--66666666--7777777777777777--   x 2
E|--22222222--44444444--5555555555555555--

chorus

E|-----------------------------------------------------------
B|-----------------------------------------------------------
G|------666-------------777777--------666--------------------
D|-777--666--444--777---777777---777--666--666--7------------  x 2
A|-777--444--444--777---555555---777--444--666--7--let ring-- 
E|-555-------222--555------------555-------444--5------------

outro

E|---------------------------------------------
B|---------------------------------------------
G|-------7777--------4444----------7777--------
D|-4444--7777--7777--4444----4444--7777--7777--
A|-4444--5555--7777--2222----4444--5555--7777--
E|-2222--------5555----------2222--------5555--    

end on
       
D|--4
A|--4         
E|--2     


i know this tab isnt 100% right, but im sure you can work around it.. have fun and please feel free to rate it!
            

comments powered by Disqus
↑ Back to top | Blink Tabs for Heres Your Letter. Lyrics for acoustic guitar and electric guitar. Tablatures and chords are parodies/interpretations of the original songs. You may use it for private study, scholarship, research or language learning purposes only