>
 >
Heres Your Letter 1

Heres Your Letter 1 Guitar Tabs

Blink - Heres Your Letter 1 chords, tabs, tablatures, lyrics

Guitar lessons | Add/correct | Request | Top 50 tabs Artists:  A B C D E F G H I J K L M N O P Q R S T U V W X Y Z 0-9

Heres Your Letter 1 Guitar Tabs – Blink

CD, Sheet music, Poster

Do you like Heres Your Letter 1? Share with your friends now
TabsTabs v2Tabs v3
Blink 182
Self Titled
Here's Your Letter

Standard Tuning (EADGBe)
x=muted string
pm=palm mute

Intro: delay effect used....
e|--------------------------|
B|--------------------------|
G|--------------------------|
D|--------------------------|
A|--------------------------|
E|-2~~~~-2~~~~-2~~~~-2~~~~--|

Intro pt.2
e|------------------------------------------------------------------|
B|------------------------------------------------------------------|
G|-----------------7-7-7-7-7-7-7-7-6-6-6-6-6-6-6-6-4-4-4-4-4-4-4-4--|
D|-4-4-4-4-4-4-4-4-7-7-7-7-7-7-7-7-7-7-7-7-7-7-7-7-4-4-4-4-4-4-4-4--| cont...
A|-4-4-4-4-4-4-4-4-5-5-5-5-5-5-5-5-4-4-4-4-4-4-4-4-2-2-2-2-2-2-2-2--|
E|-2-2-2-2-2-2-2-2--------------------------------------------------|

e|------------------------------------------------------------------|
B|------------------------------------------------------------------|
G|-----------------7-7-7-7-7-7-7-7-2-2-2-2-2-2-2-2-2-2-2-2-2-2-2-2--|
D|-4-4-4-4-4-4-4-4-7-7-7-7-7-7-7-7-x-x-x-x-x-x-x-x-x-x-x-x-x-x-x-x--|
A|-4-4-4-4-4-4-4-4-5-5-5-5-5-5-5-5-0-0-0-0-0-0-0-0-0-0-0-0-0-0-0-0--| 
E|-2-2-2-2-2-2-2-2--------------------------------------------------|

Verse: Ring into verse with Octave A, then just bass
e|----
B|----
G|-2--
D|-x--ring out
A|-0--
E|----

e|------------------------------------------------------------------|
B|------------------------------------------------------------------|
G|-----------------7-7-7-7-7-----7-2-2-2-2-2-----2-4-4-4-4-4-----4--|
D|-4-4-4-4-4-----4-7-7-7-7-7-----7-2-2-2-2-2-----2-4-4-4-4-4-----4--|
A|-4-4-4-4-4-----4-5-5-5-5-5-----5-0-0-0-0-0-----0-2-2-2-2-2-----2--|
E|-2-2-2-2-2-----2--------------------------------------------------|
pm .........     ...........     ............    ...........     ..

e|------------------------------------------------------------------|
B|------------------------------------------------------------------|
G|-----------------7-7-7-7-7-----7-2--------------------------------|
D|-4-4-4-4-4-----4-7-7-7-7-7-----7-2--ring ~~~~~~~~~~~~~~~~~~~~~~~~~|
A|-4-4-4-4-4-----4-5-5-5-5-5-----5-0--------------------------------|
E|-2-2-2-2-2-----2--------------------------------------------------|
pm .........     ...........     . 

Chorus: 
e|---------------------------|----------------------------------|
B|---------------------------|----------------------------------|
G|------6--------------------|-7-7-7-7-7-7-7-7-7-7-7-7-7-7-7-7--|
D|-7----6----2----4----6--6--|-x-x-x-x-x-x-x-x-x-x-x-x-x-x-x-x--|
A|-7----4----2----4----6--6--|-5-5-5-5-5-5-5-5-5-5-5-5-5-5-5-5--| x2
E|-5---------0----2----4--4--|----------------------------------|

Intro pt.2
e|------------------------------------------------------------------|
B|------------------------------------------------------------------|
G|-----------------7-7-7-7-7-7-7-7-6-6-6-6-6-6-6-6-4-4-4-4-4-4-4-4--|
D|-4-4-4-4-4-4-4-4-7-7-7-7-7-7-7-7-7-7-7-7-7-7-7-7-4-4-4-4-4-4-4-4--| cont...
A|-4-4-4-4-4-4-4-4-5-5-5-5-5-5-5-5-4-4-4-4-4-4-4-4-2-2-2-2-2-2-2-2--|
E|-2-2-2-2-2-2-2-2--------------------------------------------------|

e|------------------------------------------------------------------|
B|------------------------------------------------------------------|
G|-----------------7-7-7-7-7-7-7-7-2-2-2-2-2-2-2-2-2-2-2-2-2-2-2-2--|
D|-4-4-4-4-4-4-4-4-7-7-7-7-7-7-7-7-x-x-x-x-x-x-x-x-x-x-x-x-x-x-x-x--|
A|-4-4-4-4-4-4-4-4-5-5-5-5-5-5-5-5-0-0-0-0-0-0-0-0-0-0-0-0-0-0-0-0--| 
E|-2-2-2-2-2-2-2-2--------------------------------------------------|


Verse: wait till the 2nd repeat and the guitar comes in
e|------------------------------------------------------------------|
B|------------------------------------------------------------------|
G|-----------------7-7-7-7-7-----7-2-2-2-2-2-----2-4-4-4-4-4-----4--|
D|-4-4-4-4-4-----4-7-7-7-7-7-----7-2-2-2-2-2-----2-4-4-4-4-4-----4--|
A|-4-4-4-4-4-----4-5-5-5-5-5-----5-0-0-0-0-0-----0-2-2-2-2-2-----2--|
E|-2-2-2-2-2-----2--------------------------------------------------|
pm .........     ...........     ............    ...........     ..

e|------------------------------------------------------------------|
B|------------------------------------------------------------------|
G|-----------------7-7-7-7-7-----7-2--------------------------------|
D|-4-4-4-4-4-----4-7-7-7-7-7-----7-2--ring ~~~~~~~~~~~~~~~~~~~~~~~~~|
A|-4-4-4-4-4-----4-5-5-5-5-5-----5-0--------------------------------|
E|-2-2-2-2-2-----2--------------------------------------------------|
pm .........     ...........     . 

Chorus: 
e|---------------------------|----------------------------------|
B|---------------------------|----------------------------------|
G|------6--------------------|-7-7-7-7-7-7-7-7-7-7-7-7-7-7-7-7--|
D|-7----6----2----4----6--6--|-x-x-x-x-x-x-x-x-x-x-x-x-x-x-x-x--|
A|-7----4----2----4----6--6--|-5-5-5-5-5-5-5-5-5-5-5-5-5-5-5-5--| x4
E|-5---------0----2----4--4--|----------------------------------|

Bridge pt1:
e|------------------------------------------------------------------|
B|------------------------------------------------------------------|
G|---------------------------------7-7-7-7-7-7-7-7-7-7-7-7-7-7-7-7--|
D|-7-7-7-7-7-7-7-7-7-7-7-7-7-7-7-7-7-7-7-7-7-7-7-7-7-7-7-7-7-7-7-7--|
A|-4-4-4-4-4-4-4-4-4-4-4-4-4-4-4-4-5-5-5-5-5-5-5-5-5-5-5-5-5-5-5-5--| x2
E|------------------------------------------------------------------|

Pt2:
e|------------------------------------------------------------------|
B|------------------------------------------------------------------|
G|------------------------------------------------------------------|
D|-4-4-4-4-4-4-4-4-4-4-4-4-4-4-4-4-6-6-6-6-6-6-6-6-6-6-6-6-6-6-6-6--| cont...
A|-4-4-4-4-4-4-4-4-4-4-4-4-4-4-4-4-x-x-x-x-x-x-x-x-x-x-x-x-x-x-x-x--|
E|-2-2-2-2-2-2-2-2-2-2-2-2-2-2-2-2-4-4-4-4-4-4-4-4-4-4-4-4-4-4-4-4--|

e|------------------------------------------------------------------|
B|------------------------------------------------------------------|
G|------------------------------------------------------------------|
D|-7-7-7-7-7-7-7-7-7-7-7-7-7-7-7-7-7-7-7-7-7-7-7-7-7-7-7-7-7-7-7-7--|
A|-x-x-x-x-x-x-x-x-x-x-x-x-x-x-x-x-x-x-x-x-x-x-x-x-x-x-x-x-x-x-x-x--| x2
E|-5-5-5-5-5-5-5-5-5-5-5-5-5-5-5-5-5-5-5-5-5-5-5-5-5-5-5-5-5-5-5-5--|

Chorus: 
e|---------------------------|----------------------------------|
B|---------------------------|----------------------------------|
G|------6--------------------|-7-7-7-7-7-7-7-7-7-7-7-7-7-7-7-7--|
D|-7----6----2----4----6--6--|-x-x-x-x-x-x-x-x-x-x-x-x-x-x-x-x--|
A|-7----4----2----4----6--6--|-5-5-5-5-5-5-5-5-5-5-5-5-5-5-5-5--| x4
E|-5---------0----2----4--4--|----------------------------------|

Intro pt.2
e|------------------------------------------------------------------|
B|------------------------------------------------------------------|
G|-----------------7-7-7-7-7-7-7-7-6-6-6-6-6-6-6-6-4-4-4-4-4-4-4-4--|
D|-4-4-4-4-4-4-4-4-7-7-7-7-7-7-7-7-7-7-7-7-7-7-7-7-4-4-4-4-4-4-4-4--| cont...
A|-4-4-4-4-4-4-4-4-5-5-5-5-5-5-5-5-4-4-4-4-4-4-4-4-2-2-2-2-2-2-2-2--|
E|-2-2-2-2-2-2-2-2--------------------------------------------------|

e|------------------------------------------------------------------|
B|------------------------------------------------------------------|
G|-----------------7-7-7-7-7-7-7-7-2-2-2-2-2-2-2-2-2-2-2-2-2-2-2-2--|
D|-4-4-4-4-4-4-4-4-7-7-7-7-7-7-7-7-x-x-x-x-x-x-x-x-x-x-x-x-x-x-x-x--|
A|-4-4-4-4-4-4-4-4-5-5-5-5-5-5-5-5-0-0-0-0-0-0-0-0-0-0-0-0-0-0-0-0--| 
E|-2-2-2-2-2-2-2-2--------------------------------------------------|

End on:
e|-----
B|-----
G|-----
D|-4---
A|-4---
E|-2---





Comments


Popular Blink tabs & chords
All Of This 2 Tabs
Anthem Tabs
Fk The Dog Tabs
Go Tabs
Not Now 2 Tabs
Stockholm Syndrome 1 Tabs
The Party Song Tabs
Violence 100% Tabs
What Went Wrong 1 Tabs
Whats May Age Agin Tabs


Song lyrics



↑ Back to top | Tablatures and chords are parodies/interpretations of the original songs. You may use it for private study, scholarship, research or language learning purposes only
© 2014 AZChords.com Contact us | Privacy policy | DMCA | Add/correct tabs | Request tabs | Top 50 tabs