» » »

Blink, First Date Tabs (ver.1)

Artists:  A B C D E F G H I J K L M N O P Q R S T U V W X Y Z # 

First Date Tabs (ver.1)

Blink Tabs
 Rating:
4/5 (4 votes)
First Date lessons Tabs too difficult? Try these video lessons and learn fast
                By Tom DeLonge of Blink 182

COMMENTS ARE CORRECTIONS ARE WELCOME PLZ!!! BUT IM SURE THIS IS HOW IT IS PLAYED ON
URETHRA CHRONICLES II...

* = Short Note (Do not hold)
: = Let Ring
/ = Slide

INTRO
                                                         
e|-0--------------------------------------------------|-----|
B|---1----1-----3-1----1-----3-1----1-----3-1--0--0-0-|-----|
G|-----0-----0------0-----0------0-----0--------------|-----|
D|----------------------------------------------------|-----|   X 2
A|----------------------------------------------------|--3:-|
E|----------------------------------------------------|-----|
                                                   (LET RING SECOND TIME ONLY)                   



VERSE = PLAYED ON BASS (Guitar comes in half way through palm muting this:)

e|---------------------------------------------------------|
B|---------------------------------------------------------|
G|-5-5-5-5-5-5-5-5-5-5-5-5-5-5-5-5-5-5-5-5-5-5-5-5-5-5-5-5-|
D|---------------------------------------------------------|   X 2
A|---------------------------------------------------------|
E|---------------------------------------------------------|
                  ________________________________>______> Palm muting getting lighter
     



CHORUS (part 1)

e|------------------------------------------|
B|------------------------------------------|
G|-5-5-5---4-4-4---2-2-2--------------------|
D|-5-5-5---5-5-5---2-2-2---3-3-3---5-5-5----|   X 2
A|-3-3-3---2-2-2---0-0-0---3-3-3---5-5-5----|
E|-------------------------1-1-1---3-3-3----|
       *       *

CHORUS (part 2)

e|-----------------------------------------|
B|-----------------------------------------|
G|-5-5-5-5-5-4-4-4-4-4-2-2-2-2-------------|
D|-5-5-5-5-5-5-5-5-5-5-2-2-2-2-3-3--5-5----|   X 2
A|-3-3-3-3-3-2-2-2-2-2-0-0-0-0-3-3--5-5----|
E|-----------------------------1-1--3-3----|


REPEAT INTRO 2 TIMES AGAIN


VERSE AGAIN


BRIDGE 


e|----------------------------------------|
B|----------------------------------------|
G|----------------------------------------|
D|-555555---------------------------------|    X 2
A|-333333-3333333-3333333-5555555---------|
E|--------0000000-1111111-3333333---------|




e|---------------------------------------------------------|
B|---------------------------------------------------------|
G|--5-5-5--9-9/5-5--10-10-10/5-5--7-7-7--------------------|
D|--x-x-x--x-x-x-x--x--x--x--x-x--x-x-x--------------------|    X 2
A|--3-3-3--7-7/3-3--8--8--8-/3-3--5-5-5--------------------|
E|---------------------------------------------------------|

REPEAT CHORUS (part 1) X 2

REPEAT CHORUS (part 2) X 4

END ON

e|------|
B|------|
G|--5:--|
D|--5:--|   
A|--3:--|
E|------|
            
Submit corrections

comments powered by Disqus
↑ Back to top | Blink Tabs for First Date. Lyrics for acoustic guitar and electric guitar. Tablatures and chords are parodies/interpretations of the original songs. You may use it for private study, scholarship, research or language learning purposes only