>
 >
First Date 2

First Date 2 Guitar Tabs

Blink - First Date 2 chords, tabs, tablatures, lyrics

Guitar lessons | Add/correct | Request | Top 50 tabs Artists:  A B C D E F G H I J K L M N O P Q R S T U V W X Y Z 0-9

First Date 2 Guitar Tabs – Blink

CD, Sheet music, Poster

Do you like First Date 2? Share with your friends now
Tabs
Blink 182  -FIRST DATE-
Take off your pants and jacket
   (Drums)   Intro
E|---------|-0---------------------------------------------------
B|---------|----1-------3---1--------3---1-------3---1------0===-
G|---------|--------0------------0-----------0----------0--------
D|---------|-----------------------------------------------------
A|---------|-----------------------------------------------------
E|---------|-----------------------------------------------------
  Intro continued
E|-0------------------------------------------------------------
B|----1----------3----1---------3----1------3----1------0-—1----
G|--------0---------------0-------------0------------0----------
D|--------------------------------------------------------------
A|--------------------------------------------------------------
E|--------------------------------------------------------------
No guitar (In the car…)

  Please don’t look…
E|----------------------------------------
B|----------------------------------------
G|-5-5-5-----5-5-5----5-5-5----5-5-5------
D|----------------------------------------
A|----------------------------------------
E|----------------------------------------
  p.m. .     . . .    . . .    . . . 
         Lets go..
E|-----------------------------------------------------------
B|-----------------------------------------------------------
G|-----------------------------------------------------------
D|-5-5-5----------5-5-5-----2-2-2-2-2-x----------------------
A|-3-3-3----------2-2-2-----0-0-0-0-0-x-3-3-3-3-x-x-5-5-5-5--
E|------------------------------------x-1-1-1-1-x-x-3-3-3-3—-


E|---------------------------------------------------------------
B|---------------------------------------------------------------
G|---------------------------------------------------------------
D|-5-5-5-5-5—5-5-5--5-5-5-5-5-5-2-2-2-2-2-2----------------------
A|-3-3-3-3-3-3-3-3--2-2-2-2-2-2-2-0-0-0-0-0-3-3-3-3-x-x-5-5-5-5--
E|------------------------------------------1-1-1-1-x-x-3-3-3-3—-

  2x
E|-------------------------------------------------
B|-------------------------------------------------
G|-------------------------------------------------
D|-5-5-5-5-5---------------------------------------
A|-3-3-3-3-3---------------------------------------
E|------------0-0-0-0-0---1-1-1-1-1-1--3-3-3-3-3-3-
  Pm . . . . . . . . . . . . . . . . . . . . . . . 

interlude
E|-------------------------------------------------------------
B|-------------------------------------------------------------
G|-5-5-5-5-5-5--/9-9-9--5-5--/10-10-10--5-5--7-7-7-7-7--7-7----
D|-x-x-x-x-x-x--/x-x-x--x-x--/-x--x--x--x-x--x-x-x-x-x--x-x----
A|-3-3-3-3-3-3--/7-7-7--3-3--/-8--8--8--3-3--5-5-5-5-5--5-5----
E|-------------------------------------------------------------





Comments


Popular Blink tabs & chords
Always 2 Tabs
Anthem Part Two Tabs
Feeling This 2 Tabs
First Date Tabs
Go 100% Tabs
I Miss You 2 Tabs
M+Ms 1 Tabs
Obvious Tabs
Stockholm Syndrome Tabs
Story Of A Lonely Guy 1 Tabs


Song lyrics



↑ Back to top | Tablatures and chords are parodies/interpretations of the original songs. You may use it for private study, scholarship, research or language learning purposes only
© 2014 AZChords.com Contact us | Privacy policy | DMCA | Add/correct tabs | Request tabs | Top 50 tabs