>
 >
Feeling This 1

Feeling This 1 Guitar Tabs

Blink - Feeling This 1 chords, tabs, tablatures, lyrics

Guitar lessons | Add/correct | Request | Top 50 tabs Artists:  A B C D E F G H I J K L M N O P Q R S T U V W X Y Z 0-9

Feeling This 1 Guitar Tabs – Blink

CD, Sheet music, Poster

Do you like Feeling This 1? Share with your friends now
TabsTabs v2Tabs v3
There are a few guitars in this, 
and there s basically One pattersn 
but still and awesome song. If u 
have an questions or comments email 

Alright dont give me a bad rating just because 
i have more then one guitar tabbed out n here.
Tom puts two guitarparts even 
tho he is the only guitarist in blink-182, 
He does this in alot of songs. this is the 
studio tab, it would be one guitar if it were tabbed
live
P.M-=Palm mute
~= Let ring
.=Natural Harmonic

(Intro) low guitar it sounds like it has 
        wah on it but the pedal is not pushed)
e |----------------------------------|
B |----------------------------------|
G |----------------------------------|
D |----------------------------------| 2x
A |9\7-7-7-7---7/11-7----------------|
E |----------0-----------------------|

(Verse) Distortion on with some reverb sounds like room
e |-------------------------------------------------------------|
B |-------------------------------------------------------------|
G |11\9-9-9---9/13-9--------------------------------------------|
D |-x-x-x-x---x--x-x--------------------------------------------| 8x
A |-9\7-7-7-7-7/11-7--------------------------------------------|
E |---------0---------------------------------------------------|

Chorus: when u hit the E chord Its like kind of muted
e |-----------------------------------------------------------------|
B |-----------------------------------------------------------------|
G |-----------------------------------------------------------------|
D |-2----------------------------2----------------------------------|
A |-2---------------------------—2----------------------------------|
E |-0----------------------------0----------------------------------|
guitar 2 (short strokes)
e |-----------------------------------------------------------------|
B |-----------------------------------------------------------------|
G |-9---------------------------9-----------------------------------|
D |-9---------------------------9-----------------------------------|
A |-7--------------------------—7-----------------------------------|
E |-----------------------------------------------------------------|


   Interlude Main gtr
e |------------------------------------------------------------------|
B |------------------------------------------------------------------|
G |-9999-999-9/11-1111-111111-11/13-1313-131313-13/14-1414-141414----|
D |-xxxx-xxx-x/-x--x-x--x-x-x—-x/-x--x-x--x-x-x—-x/-x--x-x--x-x-x----|
A |-7777-777-7/-9--9-9—-9—9-9—-9/11-1111-111111-11/12-1212-121212----|
E |------------------------------------------------------------------|
   Gtr 2  out of the right ear  / gtr 3 coming out of the left ear
e |-----------------------------|-------------------------------------|
B |-----------------------------|-------------------------------------|
G |-----------------------------|-------------------------------------|
D |-----------------------------|-222222222222222222222222222222------|
A |-3.--------------------------|-------------------------------------|
E |-----------------------------|-------------------------------------|
  (starts low and gets louder for both guitars)
 
   pre verse with wah
e |--------------------------------------|
B |--------------------------------------|
G |--------------------------------------|
D |--------------------------------------| 2x
A |9\7-7-7-7---7/11-7--------------------|
E |----------0---------------------------|


Verse) Distortion on with some reverb sounds like room
e |-------------------------------------------------------------|
B |-------------------------------------------------------------|
G |11\9-9-9---9/13-9--------------------------------------------|
D |-x-x-x-x---x--x-x--------------------------------------------| 6x
A |-9\7-7-7-7-7/11-7--------------------------------------------|
E |---------0---------------------------------------------------|

Chorus: when u hit the E chord Its like kind of muted
e |-----------------------------------------------------------------|
B |-----------------------------------------------------------------|
G |-----------------------------------------------------------------|
D |-2----------------------------2----------------------------------|
A |-2---------------------------—2----------------------------------|
E |-0----------------------------0----------------------------------|
guitar 2 (short strokes)
e |-----------------------------------------------------------------|
B |-----------------------------------------------------------------|
G |-9---------------------------9-----------------------------------|
D |-9---------------------------9-----------------------------------|
A |-7--------------------------—7-----------------------------------|
E |-----------------------------------------------------------------|
The rest for I think 12 measures

Bridge:When Mark Starts to sing “ Look to the past……
   Gtr1 comes out of left ear 
e |--------------------------------------------------------------------|
B |-55555555----------------------------55555555-----------------------|
G |-44444444-44444444-66666666-22222222-44444444-44444444-66666666-2---|
D |-22222222-44444444-66666666-22222222-22222222-44444444-66666666-2---|
A |----------22222222-44444444-00000000----------22222222-44444444-0---|
E |--------------------------------------------------------------------|
 P.M-------- -------- -------- -------- -------- -------- -------- -
   
Gtr 2 comes out orf right pretty sure its this 
e |------------------------------------------------------------------|
B |------------------------------------------------------------------|
G |----------------------------------------------2-------------------|
D |----6---6---6-----6---------3x----6---6---6---2-------------------|
A |-77---7---7---777---77-999-----77---7---7---7-0-------------------|
E |------------------------------------------------------------------|
p.m --   -   -   ---  --  ---     --   -  -    - -


  Outro (Fate fell short this time...)
e |--------------------------------------------------------------------------|
B |-55555555----------------------------55555555-----------------------------|
G |-44444444-44444444-66666666-22222222-44444444-44444444-66666666-2222222---|
D |-22222222-44444444-66666666-22222222-22222222-44444444-66666666-2222222---|5x
A |----------22222222-44444444-00000000----------22222222-44444444-0000000---|
E |--------------------------------------------------------------------------|

  Gtr.2  starts after u play the top once
e |-------------------------------------------------------------|
B |-------------------------------------------------------------|
G |11\9-9-9---9/13-9--------------------------------------------|
D |-x-x-x-x---x--x-x--------------------------------------------|18x
A |-9\7-7-7-7-7/11-7--------------------------------------------|
E |---------0---------------------------------------------------|

Starts to fad out during the fifth time of gtr 1 and 17 for guitar 2





Comments


Popular Blink tabs & chords
Aliens Exist 2 Tabs
Asthenia Tabs
Carousel Tabs
Carousel Intro Buddha Tabs
Damnit Tabs
Not Now 2 Tabs
Shut Up 1 Tabs
Story Of A Lonely Guy 1 Tabs
The Party Song Tabs
Violence 2 Tabs


Song lyrics



↑ Back to top | Tablatures and chords are parodies/interpretations of the original songs. You may use it for private study, scholarship, research or language learning purposes only
© 2014 AZChords.com Contact us | Privacy policy | DMCA | Add/correct tabs | Request tabs | Top 50 tabs