» » »

Blink, Feeling This Tabs (ver.1)

Artists:  A B C D E F G H I J K L M N O P Q R S T U V W X Y Z # 

Feeling This Tabs (ver.1)

Blink Tabs
 Rating:
4/5 (4 votes)
Feeling This lessons Tabs too difficult? Try these video lessons and learn fast
1
                
    (Get Ready For Action)
E|----------------------------------|
B|----------------------------------|
G|---9-9-9-9-9-9-9-9-9-9-/-13-\-9---|    8x
D|---X-X-X-X-X-X-X-X-X-X-/--X-\-X---|
A|---7-7-7-7-7-7-7-7-7-7-/-11-\-7---|
E|----------------------------------|

E|-------|
B|-------|
G|-------| 2X
D|---2---|
A|---2---|
E|---0---|

E|-----------------------------------------------------------------------------|
B|-----------------------------------------------------------------------------|
G|---9-9-9-9-9-9-/-11-11-11-11-11-11-/-13-13-13-13-13-13-/-14-14-14-14-14-14---| 1X
D|---X-X-X-X-X-X-/--X--X--X--X--X--X-/--X--X--X--X--X--X-/--X--X--X--X--X--X---|
A|---7-7-7-7-7-7-/--9--9--9--9--9--9-/-11-11-11-11-11-11-/-12-12-12-12-12-12---|
E|-----------------------------------------------------------------------------|

E|----------------------------------|
B|----------------------------------|
G|---9-9-9-9-9-9-9-9-9-9-/-13-\-9---|    8x
D|---X-X-X-X-X-X-X-X-X-X-/--X-\-X---|
A|---7-7-7-7-7-7-7-7-7-7-/-11-\-7---|
E|----------------------------------|

E|-------|
B|-------|
G|-------| 2X
D|---2---|
A|---2---|
E|---0---|

E|------------------------------------------------------|
B|------------------------------------------------------|
G|--9-9-9-9-9-9--4-4-4-4-4-4--6-6-6-6-6-6--2-2-2-2-2-2--| 
D|--9-9-9-9-9-9--4-4-4-4-4-4--6-6-6-6-6-6--2-2-2-2-2-2--|
A|--7-7-7-7-7-7--2-2-2-2-2-2--4-4-4-4-4-4--0-0-0-0-0-0--|
E|------------------------------------------------------|
    __________________________________________________
                            P.M.

E|------------------------------------------------------|
B|------------------------------------------------------|
G|--9-9-9-9-9-9--4-4-4-4-4-4--6-6-6-6-6-6--2------------| 
D|--9-9-9-9-9-9--4-4-4-4-4-4--6-6-6-6-6-6--2------------|
A|--7-7-7-7-7-7--2-2-2-2-2-2--4-4-4-4-4-4--0------------|
E|------------------------------------------------------|
    __________________________________________________
                            P.M.

E|-----------------------------------------------------------------|
B|-----------------------------------------------------------------|
G|-9-9-9-9-9-9-9-9-9-9-9-9-9-9-9-9-9-9-9-9-9-9-9-9-9-9-9-9-9-9-9-9-|
D|-9-9-9-9-9-9-9-9-9-9-9-9-9-9-9-9-9-9-9-9-9-9-9-9-9-9-9-9-9-9-9-9-|
A|-7-7-7-7-7-7-7-7-x-x-x-x-x-x-x-x-x-x-x-x-x-x-x-x-0-0-0-0-0-0-0-0-| x2
E|-----------------7-7-7-7-7-7-7-7-9-9-9-9-9-9-9-9-----------------|

E|------------------------------------------------------|
B|------------------------------------------------------|
G|--9-9-9-9-9-9--4-4-4-4-4-4--6-6-6-6-6-6--2-2-2-2-2-2--| 5X
D|--9-9-9-9-9-9--4-4-4-4-4-4--6-6-6-6-6-6--2-2-2-2-2-2--|
A|--7-7-7-7-7-7--2-2-2-2-2-2--4-4-4-4-4-4--0-0-0-0-0-0--|
E|------------------------------------------------------|

Outro
e|-------------------------------------------------------------------------|
B|-------------------------------------------------------------------------|
G|-9-9-9-9-9-9-9-9---------------------------------------------------------|
D|-9-9-9-9-9-9-9-9-9-9-9-9-9-9-9-9-11-11-11-11-11-11-11-11-7-7-7-7-7-7-7-7-|
A|-7-7-7-7-7-7-7-7-9-9-9-9-9-9-9-9-11-11-11-11-11-11-11-11-7-7-7-7-7-7-7-7-| 
E|-----------------7-7-7-7-7-7-7-7-9--9--9--9--9--9--9--9--5-5-5-5-5-5-5-5-|
            
Submit corrections

comments powered by Disqus
↑ Back to top | Blink Tabs for Feeling This. Lyrics for acoustic guitar and electric guitar. 1 Tablatures and chords are parodies/interpretations of the original songs. You may use it for private study, scholarship, research or language learning purposes only