» » »

Blink, Everytime I Look For You Tabs (ver.1)

Artists:  A B C D E F G H I J K L M N O P Q R S T U V W X Y Z # 

Everytime I Look For You Tabs (ver.1)

Blink Tabs
 Rating:
4/5 (4 votes)
Everytime I Look For You lessons Tabs too difficult? Try these video lessons and learn fast
1
                ~~~~~~~~~~~~~~~~~~~~~~~~~~Every Time I look for You~~~~~~~~~~~~~~~~~~~~~~~~

Intro
e-------------------------------------------------
b-------------------------------------------------
g-444-444-444-444-444-444-------------------------
d-xxx-xxx-xxx-xxx-xxx-xxx-------------------------
a-222-222-222-222-222-222-------------------------
E-------------------------------------------------

(I) never found our why you left him
but this answer begs that question
too blind to see tomorrow 
too broke to beg or borrow

**piano arrange for guitar**
Pre Chorus
e------------------------------------------------
b------------------------------------------------
g------------------------------------------------
d---------2----------2---------------------------
a-2-----4----2-----4-----------------------------
E------------------------------------------------

Young and stupid, left wide open
hearts are wased, lives are broken

Pre verse
1st guitar
e---------------------------------------------------
b-4---5-4---5-4---5-4-----4---5-4---5-4---5-4-----4~
g---4-----4-----4-----4-6---4-----4-----4-----4-6---
d---------------------------------------------------
a---------------------------------------------------
E---------------------------------------------------

2nd guitar
e---------------------------------------------------
b---------------------------------------------------
g-------66666-44444---------------------------------
d-44444-44444-22222-66666---------------------------
a-22222-------------44444---------------------------
E---------------------------------------------------

verse(s) 1
e---------------------------------------------------
b-4-----4-----4-----4-------------------------------
g---4-6---4-6---4-6---4-4---------------------------
d---------------------------------------------------
a---------------------------------------------------
E---------------------------------------------------

One more point of contention
I need some intervention
Approached with vague intentions
Betray my short attention..
Span the distance 
Bridge the border
Beg for giveness
round the corner

Chorus      *With Intro*    
e----------------------|-----------------------------------------
b----------------------|-----------------------------------------
g-44444444-4444-4444---|-9999-9999-9999-9999-9999-9999-9999-9999-
d-44444444-4444-4444-X4|-9999-9999-9999-9999-9999-9999-9999-9999-
a-XXXXXXXX-2222-2222---|-7777-7777-7777-7777-7777-7777-7777-7777-
E-44444444-0000--------|-----------------------------------------

Everytime I look for you the sun goes down
And I stumble when this whole things comes a ground
I left another message you are never around
But everytime I look for you the sun goes down once more
Will the last one out please shut the door?

*-Pre verse-*

*-verse 2-*
More Time apart will give you
A few more months to argue
Is this too much to live through?
It always seemed too far to..
Drive the point home,
send more letters
Pray tomorrow
ends up better

*-Chorus   *With Intro* -*

Interlude
e----------------------------------------------------------------------------------
b----------------------------------------------------------------------------------
g-44444444-44444444-88888888-8888/11111111-99999999-99999999-99999999-99999999-----
d-XXXXXXXX-XXXXXXXX-XXXXXXXX-XXXX-X-X-X-X--XXXXXXXX-XXXXXXXX-XXXXXXXX-XXXXXXXX--X4-
a-22222222-22222222-66666666-6666/9-9-9-9--77777777-77777777-77777777-77777777-----
E----------------------------------------------------------------------------------

Bridge
e-----------------------------------------------------------------------------
b-----------------------------------------------------------------------------
g-44444444-44444444-88888888-88888888-99999999-99999999-99999999-99999999-----
d-XXXXXXXX-XXXXXXXX-XXXXXXXX-XXXXXXXX-XXXXXXXX-XXXXXXXX-XXXXXXXX-XXXXXXXX--X2-
a-22222222-22222222-66666666-66666666-77777777-77777777-77777777-77777777-----
E-----------------------------------------------------------------------------

Chorus      *With Intro And Pre verse*    
e----------------------|--------
b----------------------|---5----
g-44444444-4444-4444---|-4-4-4~-
d-44444444-4444-4444-X3|-4-4-4~-
a-XXXXXXXX-2222-2222---|-2-2-2~-
E-44444444-0000--------|--------

Everytime I look for you the sun goes down
And I stumble when this whole things comes a ground
I left another message you are never around
But everytime I look for you the sun goes down

By John Black
            
Submit corrections

comments powered by Disqus
↑ Back to top | Blink Tabs for Everytime I Look For You. Lyrics for acoustic guitar and electric guitar. 1 Tablatures and chords are parodies/interpretations of the original songs. You may use it for private study, scholarship, research or language learning purposes only