» » »

Blink, Everytime I Look For You Tabs (ver.2)

Artists:  A B C D E F G H I J K L M N O P Q R S T U V W X Y Z # 

Everytime I Look For You Tabs (ver.2)

Blink Tabs
 Rating:
4/5 (4 votes)
Everytime I Look For You lessons Tabs too difficult? Try these video lessons and learn fast
                Standard Tuning: EADGBE

Riff A
E---------------------------------------------------------
B---------------------------------------------------------
G-44444444------------------------------------------------
D-xxxxxxxx------------------------------------------------
A-22222222------------------------------------------------
E---------------------------------------------------------

Riff B
E---------------------------------------------------------
B---------------------------------------------------------
G-8---9-8----9-8----9-8------8----------------------------
D---9------9------9-----9-11------------------------------
A---------------------------------------------------------
E---------------------------------------------------------

Riff C
E---------------------------------------------------------
B---------------------------------------------------------
G-8-------8-------8------8--------------------------------
D---9-11----9-11----9-11---9---9--------------------------
A----------------------------9----------------------------
E---------------------------------------------------------

Riff D(Pt.1)   Riff D(Pt.2)
E---------------------------------------------------------
B---------------------------------------------------------
G-44444444-----999999999----------------------------------
D-xxxxxxxx-----999999999----------------------------------
A-22222222-----777777777----------------------------------
E---------------------------------------------------------

Interlude
E-------------------------------------------------------------
B-------------------------------------------------------------
G-44444444444444444-888888888888-11-11-11-11-9999999999999999-
D-xxxxxxxxxxxxxxxxx-xxxxxxxxxxxx--x--x--x--x-xxxxxxxxxxxxxxxx-
A-22222222222222222-666666666666--9--9--9--9-7777777777777777-
E-------------------------------------------------------------

Order:
Riff A x 8
Riff B x 2
Riff C x 2
Riff D Pt.1 x 8
Riff D Pt.2 x 2
Riff B x 2
Riff C x 2
Riff D Pt.1 x 8
Riff D Pt.2 x 2
Interlude x 6
Riff D Pt.1 x 8
Riff B x 3
End on
            
Submit corrections

comments powered by Disqus
↑ Back to top | Blink Tabs for Everytime I Look For You. Lyrics for acoustic guitar and electric guitar. Tablatures and chords are parodies/interpretations of the original songs. You may use it for private study, scholarship, research or language learning purposes only