>
 >
Down 1

Down 1 Guitar Tabs

Blink - Down 1 chords, tabs, tablatures, lyrics

Guitar lessons | Add/correct | Request | Top 50 tabs Artists:  A B C D E F G H I J K L M N O P Q R S T U V W X Y Z 0-9

Down 1 Guitar Tabs – Blink

CD, Sheet music, Poster

Do you like Down 1? Share with your friends now
TabsTabs v2Tabs v3


Tuning: Standard


Guitar 1: Distorted
Guitar 2: Slightly Distorted



Intro: (Guitar 1)
E|---------------------|
B|---------------------|
G|--4-44xx4-44xx44xx---|
D|--x-xxxxx-xxxxxxxx---|x8
A|--2-22xx2-22xx22xx---|
E|---------------------|


Verse: (Guitar 2)
E|------------------------------------|
B|------------------------------------|
G|------------------------------------|
D|--9999--9999--99--6666--8888--88----|x4
A|--xxxx--xxxx--xx--xxxx--xxxx--xx----|
E|--7777--7777--77--4444--6666--66----|

End Verse On: (Piano)
           This canít be the end
E|------------------------------------|
B|------------------------------------|
G|------------------------------------|
D|------------------------------------|
A|------------------------------------|
E|--0~~~~~~~~~~-----------------------|


Chorus: (Guitar 1)
E|-------------------------------------------------------------------|
B|-------------------------------------------------------------------|
G|-------------------------------------------------------------------|
D|-6666-6666--6666-8888-8888--8888-9999-9999--9999-4444-4444--4444---|
A|-6666-6666--6666-8888-8888--8888-9999-9999--9999-4444-4444--4444---|
E|-4444-4444--4444-6666-6666--6666-7777-7777--7777-2222-2222--2222---|

E|-------------------------------------------------------------------|
B|-------------------------------------------------------------------|
G|-------------------------------------------------------------------|
D|-6666-6666--6666-8888-8888888888-----------------------------------|
A|-6666-6666--6666-8888-8888888888-----------------------------------|
E|-4444-4444--4444-6666-6666666666-----------------------------------|


Interlude: (Guitar 2)
E|-------------------------------------------------------------------|
B|-------------------------------------------------------------------|
G|-------------------------------------------------------------------|
D|--9999--9999--99--2222--2222--22--6666--6666--66--2222--2222--22---|x2
A|--xxxx--xxxx--xx--xxxx--xxxx--xx--xxxx--xxxx--xx--xxxx--xxxx--xx---|
E|--7777--7777--77--0000--0000--00--4444--4444--44--0000--0000--00---|


Intro: (Guitar 1)
E|---------------------|
B|---------------------|
G|--4-44xx4-44xx44xx---|
D|--x-xxxxx-xxxxxxxx---|x2
A|--2-22xx2-22xx22xx---|
E|---------------------|



Verse: (Guitar 2)
E|-----------------------------------------|
B|-----------------------------------------|
G|-----------------------------------------|
D|-----------------------------------------|x4
A|-----------------------------------------|
E|--7~~~~~~~~~~~~~~~4~~~~~~~~~~~6~~~~~~~~~~|
                     Vol. Swell  Vol. Swell
End Verse On: (Piano)
             You did this
E|-----------------------------------------|
B|-----------------------------------------|
G|-----------------------------------------|
D|-----------------------------------------|
A|-----------------------------------------|
E|--0~~~~~~~~~~~~~~~~----------------------|



Chorus: (Guitar 1)
E|-------------------------------------------------------------------|
B|-------------------------------------------------------------------|
G|-------------------------------------------------------------------|
D|-6666-6666--6666-8888-8888--8888-9999-9999--9999-4444-4444--4444---|
A|-6666-6666--6666-8888-8888--8888-9999-9999--9999-4444-4444--4444---|
E|-4444-4444--4444-6666-6666--6666-7777-7777--7777-2222-2222--2222---|

E|-------------------------------------------------------------------|
B|-------------------------------------------------------------------|
G|-------------------------------------------------------------------|
D|-6666-6666--6666-8888-8888888888-----------------------------------|
A|-6666-6666--6666-8888-8888888888-----------------------------------|
E|-4444-4444--4444-6666-6666666666-----------------------------------|



Interlude: (Guitar 2)
E|-------------------------------------------------------------------|
B|-------------------------------------------------------------------|
G|-------------------------------------------------------------------|
D|--9999--9999--99--2222--2222--22--6666--6666--66--2222--2222--22---|x2
A|--xxxx--xxxx--xx--xxxx--xxxx--xx--xxxx--xxxx--xx--xxxx--xxxx--xx---|
E|--7777--7777--77--0000--0000--00--4444--4444--44--0000--0000--00---|

Interlude: (Piano)
E|-------------------------------------------------------------------|
B|-----12-----12-------12-----12-------12-----12-------12-----12-----|
G|---11--11-11--11---11--11-11--11---11--11-11--11---11--11-11--11---|
D|--9---------------9---------------9---------------9----------------|x2
A|-------------------------------------------------------------------|
E|-------------------------------------------------------------------|


Ending: (Piano) 
E|--------------------|
B|------12-----12-----|
G|----11--11-11--11---|
D|--9-----------------|x16
A|--------------------|
E|--------------------|





Comments


Popular Blink tabs & chords
100% What Went Wrong Tabs
Dont Leave Me Tabs
Everytime I Look For You 1 Tabs
Not Now 1 Tabs
Obvious 100% Tabs
Please Take Me Home 1 Tabs
Shut Up 1 Tabs
Stockholme Syndrome Tabs
Violence 2 Tabs
When You Ed Grampa Tabs


Song lyrics



↑ Back to top | Tablatures and chords are parodies/interpretations of the original songs. You may use it for private study, scholarship, research or language learning purposes only
© 2014 AZChords.com Contact us | Privacy policy | DMCA | Add/correct tabs | Request tabs | Top 50 tabs