» » »

Blink, Down Tabs (ver.3)

Artists:  A B C D E F G H I J K L M N O P Q R S T U V W X Y Z # 

Down Tabs (ver.3)

Blink Tabs
 Rating:
4/5 (4 votes)
Down lessons Tabs too difficult? Try these video lessons and learn fast
1
                Intro (Distorted):
e|---------------------|
B|---------------------|
G|-444xx444xx4x--------|
D|-xxxxxxxxxxxx--------|
A|-222xx222xx2x--------|
E|---------------------| Repeat many times as necessary with VERSE A low in BG...

Verse A (Clean; light distortion):
e|----------------------|
B|----------------------|
G|----------------------|
D|-999-999-999-666-888--|
A|-xxx-xxx-xxx-xxx-xxx--|
E|-777-777-777-444-666--| Repeat as necessary with intro in background (Guitar 2)

End verse on:
e|---------------------|
B|---------------------|
G|---------------------|
D|-9-------------------|
A|-x-------------------|
E|-7-------------------|

Chorus (Heavy Distortion):
e|-----------------------------------------------------------|
B|-----------------------------------------------------------|
G|-----------------------------------------------------------|
D|--66666666-88888888-99999999-44444444-66666666-88888888-9--|
A|--66666666-88888888-99999999-44444444-66666666-88888888-9--|
E|--44444444-66666666-77777777-22222222-44444444-66666666-7--|

*** Break after chorus is basically the intro played as:
e|-------------------|
B|-------------------|
G|----------44444444-|
D|-99999999-xxxxxxxx-|
A|-xxxxxxxx-22222222-|
E|-77777777----------|

Verse B (Clean with heavy EQ and effects):
e|-------------------|
B|-------------------|
G|-------------------|
D|-666-888-9---------|
A|-xxx-xxx-x---------|
E|-444-666-7---------| Repeat as necessary

Chorus (Heavy Distortion):
e|-----------------------------------------------------------|
B|-----------------------------------------------------------|
G|-----------------------------------------------------------|
D|--66666666-88888888-99999999-44444444-66666666-88888888-9--|
A|--66666666-88888888-99999999-44444444-66666666-88888888-9--|
E|--44444444-66666666-77777777-22222222-44444444-66666666-7--|

Play around with this until fade out (Clean):
e|-------------------|
B|-------------------|
G|----------44444444-|
D|-99999999-xxxxxxxx-|
A|-xxxxxxxx-22222222-|
E|-77777777----------|

If you really want to play the Piano part, here it is:
e|--------------------------------------|
B|------12-------12---------12-------12-|
G|---11----11-11----11---11----11-11----|
D|-9-------------------9----------------|
A|--------------------------------------|
E|--------------------------------------| Repeat until fade out...
            
Submit corrections

comments powered by Disqus
↑ Back to top | Blink Tabs for Down. Lyrics for acoustic guitar and electric guitar. 1 Tablatures and chords are parodies/interpretations of the original songs. You may use it for private study, scholarship, research or language learning purposes only