>
 >
Anthem Part Two 1

Anthem Part Two 1 Guitar Tabs

Blink - Anthem Part Two 1 chords, tabs, tablatures, lyrics

Guitar lessons | Add/correct | Request | Top 50 tabs Artists:  A B C D E F G H I J K L M N O P Q R S T U V W X Y Z 0-9

Anthem Part Two 1 Guitar Tabs – Blink

CD, Sheet music, Poster

Do you like Anthem Part Two 1? Share with your friends now
TabsTabs v2Tabs v3
(Also see alternate version below)

Intro Part 1
-|----------------------------------------------------------------------------
-|----------------------------------------------------------------------------
-|-12----12-----10----10----9----9-----10----10-------------------------------
-|----10----10-----10----10---10---10-----10----10----------------------------
-|----------------------------------------------------------------------------
-|----------------------------------------------------------------------------
                                                               
Intro Part 2
-|----------------------------------------------------------------------------
-|----------------------------------------------------------------------------
-|-------------------------------------------------------------------555555---
-|----2h3------2-------2h3-----2------2h3------2----------0-------0--555555---
-|-33------33------33-------33----33-------33---------33------33-----333333---
-|----------------------------------------------------------------------------
                                                      4th time end w/pm....   
Intro Part 3
-|---------------------------------------|------------------------------------
-|---------------------------------------|------------------------------------
-|--999---101010-999-----555-----7777----|-999----101010---5555555----5-------
-|--xxx---x-x-x--xxx-----xxx-----xxxx----|-xxx----x-x-x----xxxxxxx----x-------
-|--777---8-8-8--777-----333-----5555----|-777----8-8-8----3333333----3-------
-|---------------------------------------|------------------------------------
                                    x3                               ring.....  

Bass Riff for Guitar
-|----------------------------------------------------------------------------
-|----------------------------------------------------------------------------
-|----------------------------------------------------------------------------
-|----------------------------------------------------------------------------
-|-------7--------5--------3--------------------------------------------------
-|----5----5---3----3----1----------------------------------------------------
   
Verses
-|------------|---------------------------------------------------------------
-|------------|---------------------------------------------------------------
-|--9-9-9--5--|-5-5-5-5-------------------------------------------------------
-|--x-x-x--x--|-5-5-5-5---7-7-7-7--3-3-3-3------------------------------------
-|--7-7-7--3--|-3-3-3-3---7-7-7-7--3-3-3-3------------------------------------
-|------------|-----------5-5-5-5--1-1-1-1------------------------------------
               pm........................                                    
Chorus
-|------------------------------------|-------------|
-|------------------------------------|-------------|
-|-------------------5-5-5-5----------|-------------|
-|2-2-2-2--3-3-3-3---5-5-5-5--5-5-5-5-|-2-2-2-2---3-|
-|2-2-2-2--3-3-3-3---3-3-3-3--5-5-5-5-|-2-2-2-2---3-|
-|0-0-0-0--1-1-1-1------------3-3-3-3-|-0-0-0-0---1-|
  x2 (3rd time Palm Mute it all)                 x1   

Outro
  Well the Outro is just Intro Part 2 with Intro Part 1 in the backround;
	if you only have one guitar just play Intro Part 2.


Anthem Part 2(Live) - Blink 182
Blink-182 Fans Rule
This is how he played it live at the Edgefest

)))=Letring
/=Slide
P.M.=Palm Mute

Intro:
Riff A:
(Play 5 times)
(Clean)
e|---------------------------------------------------------------------------|
B|8-----8-----6-----6-----5-----5-----6-----6--------------------------------|
G|---5-----5-----5-----5-----5-----5-----5-----5-----------------------------|
D|---------------------------------------------------------------------------|
A|---------------------------------------------------------------------------|
E|---------------------------------------------------------------------------|

Riff B:
(Play 3 times)
(Dist.)
e|---------------------------------------------------------------------------|
B|---------------------------------------------------------------------------|
G|---------------------------------------------------------------------------|
D|----0/3-----2-----0/3-----2-----0/3-----2-----0-----0----------------------|
A|3-3-----3-3---3-3-----3-3---3-3-----3-3---3-3---3-3------------------------|
E|---------------------------------------------------------------------------|
PM...     ...   ...     ...   ...     ...   ...   ...             

                                (Play 4 Times)
e|-------------------|-------------------------------------------------------|
B|-------------------|-------------------------------------------------------|
G|-------------------|-9-9-9-101010-9-9-9-5-5-5-7-7-7-7----------------------|
D|5-5-5-5----5-5-5-5-|-x-x-x-x-x-x--x-x-x-x-x-x-x-x-x-x----------------------|
A|3-3-3-3----3-3-3-3-|-7-7-7-8-8-8--7-7-7-3-3-3-5-5-5-5----------------------|
E|-------------------|-------------------------------------------------------|

Verse:
Riff C:
e|---------------------------------------------------------------------------|
B|---------------------------------------------------------------------------|
G|5)))-----------------------------------------------------------------------|
D|x)))-----------------------------------------------------------------------|
A|3)))-----------------------------------------------------------------------|
E|---------------------------------------------------------------------------|

e|---------------------------------------------------------------------------|
B|---------------------------------------------------------------------------|
G|9-9-9-5--------------------------------------------------------------------|
D|x-x-x-x--------------------------------------------------------------------|
A|7-7-7-3-3-3-3-3-3-3-3-3-3-3-3-3-3------------------------------------------|
E|----------------------------------5-5-5-5-5-5-5-5-1-1-1-1-1-1-1------------|
PM        ........................................................

e|---------------------------------------------------------------------------|
B|---------------------------------------------------------------------------|
G|---------------------------------------------------------------------------|
D|---------------------------------------------------------------------------|
A|-3-3-3-3-3-3-3-3-3-3-3-3-3-------------------------------------------------|
E|---------------------------5-5-5-5-5-5-5-1-1-1-1-1-1-1-1-------------------|
PM.........................................................

Bass Arranged For Guitar
e|---------------------------------------------------------------------------|
B|---------------------------------------------------------------------------|
G|---------------------------------------------------------------------------|
D|---------------------------------------------------------------------------|
A|----7-------5--------3)))--------------------------------------------------|
E|-5----5--3-----3--1--------------------------------------------------------|

Riff D:
e|---------------------------------------------------------------------------|
B|---------------------------------------------------------------------------|
G|5)))-----------------------------------------------------------------------|
D|x)))-----------------------------------------------------------------------|
A|3)))-----------------------------------------------------------------------|
E|---------------------------------------------------------------------------|

e|---------------------------------------------------------------------------|
B|---------------------------------------------------------------------------|
G|-9-9-9-5-------------------------------------------------------------------|
D|-x-x-x-x-------------------------------------------------------------------|
A|-7-7-7-3-3-3-3-3-3-3-3-3-3-3-3-3-3-----------------------------------------|
E|-----------------------------------5-5-5-5-5-5-5-5-1-1-1-1-1-1-1-1---------|
PM         ..........................................................

e|---------------------------------------------------------------------------|
B|---------------------------------------------------------------------------|
G|---------------------------------------------------------------------------|
D|---------------------------------------------------------------------------|
A|-3-3-3-3-3-3-3-3-3-3-3-3-3-------------------------------------------------|
E|---------------------------5-5-5-5-5-5-5-5-1-1-1-1-1-1-1-1-----------------|
PM .........................................................

Chorus:
e|---------------------------------------------------------------------------|
B|---------------------------------------------------------------------------|
G|---------------------------------------------------------------------------|
D|----------------5-5-5-5-------------------------5-5-5-5--------------------|
A|3-3-3-3-3-3-3-3-3-3-3-3-5-5-5-5-3-3-3-3-3-3-3-3-3-3-3-3-5-5-5-5------------|
E|0-0-0-0-1-1-1-1---------3-3-3-3-0-0-0-0-1-1-1-1---------3-3-3-3------------|

e|---------------------------------------------------------------------------|
B|---------------------------------------------------------------------------|
G|-5-5-5-5-5-5-5-5-5-5-5-5-5-5-5-5-5-5-5-5-5-5-5-5-5-5-5-5-5-5-5-5-5-5-5-5-5-|
D|-x-x-x-x-x-x-x-x-x-x-x-x-x-x-x-x-x-x-x-x-x-x-x-x-x-x-x-x-x-x-x-x-x-x-x-x-x-|
A|-3-3-3-3-3-3-3-3-3-3-3-3-3-3-3-3-3-3-3-3-3-3-3-3-3-3-3-3-3-3-3-3-3-3-3-3-3-|
E|---------------------------------------------------------------------------|

e|---------------------------------------------------------------------------|
B|---------------------------------------------------------------------------|
G|-5-5-5---------------------------------------------------------------------|
D|-x-x-x---------------------------------------------------------------------|
A|-3-3-3---------------------------------------------------------------------|
E|---------------------------------------------------------------------------|

Bass Solo:
e|---------------------------------------------------------------------------|
B|---------------------------------------------------------------------------|
G|---------------------------------------------------------------------------|
D|---------------------------------------------------------------------------|
A|-3-3-3-3-3-3-3-3-0-0-0-0-0-0-0-0-------------------------------------------|
E|---------------------------------1-1-1-1-1-1-1-1---------------------------|

Bridge:
e|---------------------------------------------------------------------------|
B|---------------------------------------------------------------------------|
G|-5-5-5-5-5-5-5-5-5-5-5-5-5-5-5-5-5-5-5-5-5-5-5-5-5-5-5-5-5-5-5-5-5-5-5-5---|
D|-5-5-5-5-5-5-5-5-5-5-5-5-5-5-5-5-5-5-5-5-5-5-5-5-5-5-5-5-5-5-5-5-5-5-5-5---|
A|---------------------------------------------------------------------------|
E|---------------------------------------------------------------------------|

(Play Riff D at the End)
End On This Note
e|---------------------------------------------------------------------------|
B|---------------------------------------------------------------------------|
G|---------------------------------------------------------------------------|
D|---------------------------------------------------------------------------|
A|-0)))))))))))))))))--------------------------------------------------------|
E|---------------------------------------------------------------------------|





Comments


Popular Blink tabs & chords
13 Miles Tabs
Ben Wah Balls Tabs
Carousel 1 Tabs
Easy Target Tabs
I Miss You Tabs
M+Ms 1 Tabs
Obvious 2 Tabs
Pathetic 1 Tabs
Story Of A Lonely Guy Tabs
What Went Wrong 1 Tabs


Song lyrics



↑ Back to top | Tablatures and chords are parodies/interpretations of the original songs. You may use it for private study, scholarship, research or language learning purposes only
© 2014 AZChords.com Contact us | Privacy policy | DMCA | Add/correct tabs | Request tabs | Top 50 tabs