>
 >
Anthem

Anthem Guitar Tabs

Blink - Anthem chords, tabs, tablatures, lyrics

Guitar lessons | Add/correct | Request | Top 50 tabs Artists:  A B C D E F G H I J K L M N O P Q R S T U V W X Y Z 0-9

Anthem Guitar Tabs – Blink

CD, Sheet music, Poster

Do you like Anthem? Share with your friends now
TabsTabs v2Tabs v3
anthem

All guitars Standard

Intro/Verse X3
Guitar 1
e---------|---------|---------|---------|---------|---------|---------|---------||
b---------|---------|---------|---------|---------|---------|---------|---------||
g-44444---|-44444---|-88888---|-88888---|-99999---|-66666---|-99999---|---------||
d-xxxxx---|-xxxxx---|-xxxxx---|-xxxxx---|-xxxxx---|-xxxxx---|-xxxxx---|-44444---||
a-22222---|-22222---|-66666---|-66666---|-77777---|-44444---|-77777---|-44444---||
E---------|---------|---------|---------|---------|---------|---------|-22222---||
Guitar 2
e---------|---------|---------|---------|---------|---------|---------|---------||
b---------|---------|---------|---------|---------|---------|---------|---------||
g-44444---|-44444---|-44444---|-44444---|-44444---|---------|-44444---|---------||
d-44444---|-44444---|-44444---|-44444---|-44444---|-44444---|-44444---|-44444---|| 
a-22222---|-22222---|-22222---|-22222---|-22222---|-44444---|-22222---|-44444---||
E---------|---------|---------|---------|---------|-22222---|---------|-22222---||

Chrous X4
a----------|----------|----------|----------||
b----------|----------|----------|----------||
g----------|----------|----------|----------||
d-66666666-|-44444444-|-2-222222-|-4-444444-||
a-66666666-|-44444444-|-2-222222-|-4-444444-||
E-44444444-|-22222222-|-0-000000-|-2-222222-||

Break
e----------|----------|---------|-----------||
b----------|----------|---------|-----------||
g-44444----|-44444----|-44444---|-----------||
d-xxxxx----|-xxxxx----|-xxxxx---|-2---------||
a-22222----|-22222----|-22222---|-2---------||
E----------|----------|---------|-0---------||

Verse 2
Guitar 1
e----------|----------|----------|----------|
b----------|----------|----------|----------|
g-44-444-4-|-44-444-4-|-88-888-8-|-88-888-8-|
d-xx-xxx-x-|-xx-xxx-x-|-xx-xxx-x-|-xx-xxx-x-|
a-22-222-2-|-22-222-2-|-66-666-6-|-66-666-6-|
E----------|----------|----------|----------|
Guitar 2
e----------|----------|----------|----------|
b----------|----------|----------|----------|
g-44-444-4-|-44-444-4-|-44-444-4-|-44-444-4-|
d-44-444-4-|-44-444-4-|-44-444-4-|-44-444-4-|
a-22-222-2-|-22-222-2-|-22-222-2-|-22-222-2-|
E----------|----------|----------|----------|

Guitar 1
e----------|----------|----------|----------||
b----------|----------|----------|----------||
g-99-999-9-|-66-666-6-|-99-999-9-|-66-666-6-||
d-xx-xxx-x-|-xx-xxx-x-|-xx-xxx-x-|-xx-xxx-x-||
a-77-777-7-|-44-444-4-|-77-777-7-|-44-444-4-||
E----------|----------|----------|----------||
Guitar 2
e----------|----------|----------|----------||
b----------|----------|----------|----------||
g-44-444-4-|----------|-44-444-4-|----------||
d-44-444-4-|-44-444-4-|-44-444-4-|-44-444-4-||
a-22-222-2-|-44-444-4-|-22-222-2-|-44-444-4-||
E----------|-22-222-2-|----------|-22-222-2-||


Chrous X4
a----------|----------|----------|----------||
b----------|----------|----------|----------||
g----------|----------|----------|----------||
d-66-666-6-|-44-444-4-|-22-222-2-|-44-444-4-||
a-66-666-6-|-44-444-4-|-22-222-2-|-44-444-4-||
E-44-444-4-|-22-222-2-|-00-000-0-|-22-222-2-||

"Friends were 21"
e---------||
b---------||
g---------||
d-4-------||
a-4-------||
E-2-------||

Bridge
e----------|----------|----------|----------|
b----------|----------|----------|----------|
g-4-444-44-|-4-444-44-|----------|----------|
d-4-444-44-|-4-444-44-|-2-222-22-|-2-222-22-|
a-2-222-22-|-2-222-22-|-2-222-22-|-2-222-22-|
E----------|----------|-0-000-00-|-0-000-00-|

e----------|----------|----------|----------|----------|----------|
b----------|----------|----------|----------|----------|----------|
g-4-444-44-|-4-444-44-|----------|----------|-----4-44-|-4-444-44-|
d-4-444-44-|-4-444-44-|-4-444-44-|-4-444-44-|-----4-44-|-4-444-44-|
a-2-222-22-|-2-222-22-|-4-444-44-|-4-444-44-|-----2-22-|-2-222-22-|
E----------|----------|-2-222-22-|-2-222-22-|-222------|----------|
Pm                                            ...

e----------|----------|----------|----------|----------|----------|
b----------|----------|----------|----------|----------|----------|
g----------|----------|-4-444-44-|-4-444-44-|----------|----------|
d-2-222-22-|-2-222-22-|-4-444-44-|-4-444-44-|-4-444-44-|-4-444-44-|
a-2-222-22-|-2-222-22-|-2-222-22-|-2-222-22-|-4-444-44-|-4-444-44-|
E-0-000-00-|-0-000-00-|----------|----------|-2-222-22-|-2-222-22-|


"I Time Bomb"
e----------|----------|----------|----------|
b----------|----------|----------|----------|
g-44-444-4-|-44-444-4-|----------|----------|
d-44-444-4-|-44-444-4-|-22-222-2-|-22-222-2-|
a-22-222-2-|-22-222-2-|-22-222-2-|-22-222-2-|
E----------|----------|-00-000-0-|-00-000-0-|

e----------|----------|----------|----------|
b----------|----------|----------|----------|
g----------|----------|----------|----------|
d-66-666-6-|-66-666-6-|-44-444-4-|-44-444-4-|
a-66-666-6-|-66-666-6-|-44-444-4-|-44-444-4-|
E-44-444-4-|-44-444-4-|-22-222-2-|-22-222-2-|


Solo

  B5                    E5        
  // /// /   // /// /   // /// /   // /// /  
e----------|----------|----------|----------|
b----------|----------|----------|----------|
g----------|----------|----------|----------|
d-1-----4--|----------|-1--------|----------|
a---2------|----------|---2------|----------|
E----------|----------|-------0--|----------|

  F#5                   E5
  // /// /   // /// /   // /// /   // /// /
e----------|----------|----------|----------||
b----------|----------|----------|---------o||
g----------|----------|----------|----------||
d-1--------|----------|-1--------|----------||
a-------4--|----------|-------2--|---------o||
E---2------|----------|---0------|----------||



Bass solo
(bass aranged for guitar)
e-----------|-----------|-----------|-----------|
b-----------|-----------|-----------|-----------|
g-----------|-----------|-----------|-----------|
d----1----1-|----4----4-|----1----1-|----4----4-|
a-22---22---|-22---22---|-22---22---|-22---22---|
E-----------|-----------|-----------|-----------|
                                     First End... Sendond End.
e-----------|-----------|-----------|-----------||-----------||
b-----------|-----------|-----------|-----------||-----------||
g-----------|-----------|-----------|-----------||-----------||
d-----------|-----------|-----------|-----------||-----------||
a----2----2-|----4----4-|----2----2-|----4----4-||----4------||
E-00---00---|-22---22---|-00---00---|-22---22---||-22---2----||

                                                 e--------||
                                                 b--------||
                                                 g--------||
                                                 d---/X/--||
                                                 a--/X/---||
                                                 E-/X/----||Pickslide

Chrous X4
a----------|----------|----------|----------||
b----------|----------|----------|----------||
g----------|----------|----------|----------||
d-66-666-6-|-44-444-4-|-22-222-2-|-44-444-4-||
a-66-666-6-|-44-444-4-|-22-222-2-|-44-444-4-||
E-44-444-4-|-22-222-2-|-00-000-0-|-22-222-2-||

"Friends were 21"
e---------||
b---------||
g---------||
d-4-------||
a-4-------||
E-2-------||

Bridge
e----------|----------|----------|----------|
b----------|----------|----------|----------|
g-4-444-44-|-4-444-44-|----------|----------|
d-4-444-44-|-4-444-44-|-2-222-22-|-2-222-22-|
a-2-222-22-|-2-222-22-|-2-222-22-|-2-222-22-|
E----------|----------|-0-000-00-|-0-000-00-|

e----------|----------|----------|----------|----------|----------|
b----------|----------|----------|----------|----------|----------|
g-4-444-44-|-4-444-44-|----------|----------|-----4-44-|-4-444-44-|
d-4-444-44-|-4-444-44-|-4-444-44-|-4-444-44-|-----4-44-|-4-444-44-|
a-2-222-22-|-2-222-22-|-4-444-44-|-4-444-44-|-----2-22-|-2-222-22-|
E----------|----------|-2-222-22-|-2-222-22-|-222------|----------|
Pm                                            ...

e----------|----------|----------|----------|----------|----------|
b----------|----------|----------|----------|----------|----------|
g----------|----------|-4-444-44-|-4-444-44-|----------|----------|
d-2-222-22-|-2-222-22-|-4-444-44-|-4-444-44-|-4-444-44-|-4-444-44-|
a-2-222-22-|-2-222-22-|-2-222-22-|-2-222-22-|-4-444-44-|-4-444-44-|
E-0-000-00-|-0-000-00-|----------|----------|-2-222-22-|-2-222-22-|

Outro

  B5                    E5        
  // /// /   // /// /   // /// /   // /// /  
e----------|----------|----------|----------|
b----------|----------|----------|----------|
g----------|----------|----------|----------|
d-1-----4--|----------|-1--------|----------|
a---2------|----------|---2------|----------|
E----------|----------|-------0--|----------|

Pm                                     ...  
  G#5                   F5           
  // /// /   // /// /   // /// /   // ////    End
e----------|----------|----------|----------|---------||
b----------|----------|----------|----------|---------||
g----------|----------|----------|----------|---4-----||
d-1--------|----------|-1-/2-----|----------|---4-----||
a-------4--|----------|-------4--|----------|---2-----||
E---2------|----------|----------|----------|---------||

By John Black 
PLease Rate/Comment





Comments


Popular Blink tabs & chords
Adams Song 1 Tabs
Aliens Exist 2 Tabs
All Of This Tabs
All The Small Things Tabs
Heres Your Letter 1 Tabs
I Miss You Tabs
Mothers Day Tabs
Mutt Tabs
Stockholm Syndrome 1 Tabs
Untitled 1 Tabs


Song lyrics



↑ Back to top | Tablatures and chords are parodies/interpretations of the original songs. You may use it for private study, scholarship, research or language learning purposes only
© 2014 AZChords.com Contact us | Privacy policy | DMCA | Add/correct tabs | Request tabs | Top 50 tabs