>
 >
Anthem 1

Anthem 1 Guitar Tabs

Blink - Anthem 1 chords, tabs, tablatures, lyrics

Guitar lessons | Add/correct | Request | Top 50 tabs Artists:  A B C D E F G H I J K L M N O P Q R S T U V W X Y Z 0-9

Anthem 1 Guitar Tabs – Blink

CD, Sheet music, Poster

Do you like Anthem 1? Share with your friends now
TabsTabs v2Tabs v3
Anthem Part II

 
4/4

intro guitar one
e---------|---------|---------|---------||
b-8---8---|-6---6---|-5---5---|-6---6---||
g---5---5-|---5---5-|---5---5-|---5---5-||
d---------|---------|---------|---------|| X4
a---------|---------|---------|---------||
E---------|---------|---------|---------||
 guitar two			  ||        
e---------|---------|---------|---------||
b---------|---------|---------|---------||
g---------|---------|---------|---------||
d---------|---------|---------|---------|| 
a-3333----|---------|---------|---------||
E---------|---------|---------|---------||
PM....

 guitar two (With intro guitar one 3 1/4 times )
e-----------------|-----------------|-----------------|-----------------||
b-----------------|-----------------|-----------------|-----------------||
g-----------------|-----------------|-----------------|-----------------||
d-----0h3-----2---|-----0h3-----2---|-----0h3-----2---|-----0-----0-----||
a-3-3-----3-3-----|-3-3-----3-3-----|-3-3-----3-3-----|-3-3---3-3-------||
E-----------------|-----------------|-----------------|-----------------||
PM. .     . .       . .     . .       . .     . .       . .   . .       ||
guitar 3      		      		        ||   X3 1/4
e-----------------|-----------------|-----------------|-----------------||
b-----------------|-----------------|-----------------|-----------------||
g-----------------|-----------------|-----------------|-----------------||
d-----------------|-----------------|-----------------|-3-3-3-3-3-3-3-3-||
a-3-3-3-3-3-3-3-3-|-5-5-5-5-5-5-5-5-|-0-0-0-0-0-0-0-0-|-----------------||
E-----------------|-----------------|-----------------|-----------------||
PM. . . . . . . .   . . . . . . . .   . . . . . . . .   . . . . . . . . 

              interlude 
	       guitar 1 
e-----------||-----------------|-----------------|
b-----------||-----------------|-----------------|
g-----------||-9-9-9-1010101010|-9-5-5-5-7-7-7-7-|
d-5555-5555-||-x-x-x-x-x-x-x-x-|-x-x-x-x-x-x-x-x-|
a-3333-3333-||-7-7-7-8-8-8-7-7-|-7-3-3-3-5-5-5-5-|
E-----------||-----------------|-----------------|
             guitar 2  		           |
e-----------||-----------------|-----------------|
b-----------||-----------------|-----------------|
g-----------||-5---5-5-5-5-5---|-5-5-5-5-5-5-5-5-|
d-----------||-5---5-5-5-5-5---|-5-5-5-5-5-5-5-5-|
a-----------||-3---3-3-3-3-3---|-3-3-3-3-3-3-3-3-|
E-----------||-----------------|-----------------|
			 
e-----------------|-----------------|-----------------|
b-----------------|-----------------|-----------------|
g-9-9-9-1010109-9-|-9-5-5-5-7-7-7-7-|-9-9-9-1010109-9-|
d-x-x-x-x-x-x-x-x-|-x-x-x-x-x-x-x-x-|-x-x-x-x-x-x-x-x-|
a-7-7-7-8-8-8-7-7-|-7-3-3-3-5-5-5-5-|-7-7-7-8-8-8-7-7-|
E-----------------|-----------------|-----------------|
				   |		
e-----------------|-----------------|-----------------|
b-----------------|-----------------|-----------------|
g-2---2-2-2-2-----|-----------------|-5---5-5-5-5-5---|
d-2---2-2-2-2-3---|-3-3-3---3-3-3-3-|-5---5-5-5-5-5---|
a-0---0-0-0-0-3---|-3-3-3---3-3-3-3-|-3---3-3-3-3-3---|
E-------------1---|-1-1-1---1-1-1-1-|-----------------|


e-----------------|-----------------|-----------------||
b-----------------|-----------------|-----------------||
g-9-5-5-5-7-7-7-7-|-9-9-9-1010105-5-|-5-5-5-5-5-5-5-5-||
d-x-x-x-x-x-x-x-x-|-x-x-x-x-x-x-x-x-|-x-x-x-x-x-x-x-x-||
a-7-3-3-3-5-5-5-5-|-7-7-7-8-8-8-3-3-|-3-3-3-3-3-3-3-3-||
E-----------------|-----------------|-----------------||
 				   ||
e-----------------|-----------------|-----------------||
b-----------------|-----------------|-----------------||
g---5-5-5-5-5-5-5-|-2-2-2-2-2-2-----|-----------------||
d---5-5-5-5-5-5-5-|-2-2-2-2-2-2-3~--|(3~)-------------||
a---3-3-3-3-3-3-3-|-0-0-0-0-0-0-3~--|(3~)-------------||
E-----------------|-------------1~--|(1~)-------------||

Verse
e-----|----|----|----||
b-----|----|----|----||
g-5~--|----|----|----||
d-x~--|----|----|----||
a-3~--|----|----|----||
E-----|----|----|----||
	
e-----|----|----|-----------------||
b-----|----|----|-----------------||
g-5---|----|----|-----------9-9-9-||
d-5---|----|----|-----------x-x-x-||
a-3---|----|----|-----------7-7-7-||
E-----|----|----|-----------------||

e----------|----------|----------|----------||
b----------|----------|----------|----------||
g-5--------|----------|----------|----------||
d-x--------|----------|----------|----------|| 
a-33333333-|-33333333-|----------|----------||
E----------|----------|-55555555-|-11111111-||
PM .......   ........   ........   ........				 

e----------|----------|----------|----------||
b----------|----------|----------|----------||
g----------|----------|----------|----------||
d----------|----------|----------|----------||
a-33333333-|-33333333-|----------|----------||
E----------|----------|-55555555-|-11111111-||
PM........   ........   ........   ........

Bass Arranged for guitar
e-------|-------|-------|-------||
b-------|-------|-------|-------||
g-------|-------|-------|-------||
d-------|-------|-------|-------||
a---7---|---5---|---3---|-------||
E-5---5-|-3---3-|-1-----|-------||

*Repeat Verse*

*Repeat Bass Aranged For Guitar*	

Chorus Guitar 1				 
e-----------------|-----------------|-----------------|-----------------||
b-----------------|-----------------|-----------------|-----------------||
g-----------------|-----------------|-5---5-5-5-5-5-5-|-----------------||
d-----------------|-3-3-3---3---3---|-5---5-5-5-5-5-5-|-5---5-5-5-5-5-5-||
a-3---3---3---3-3-|-3-3-3---3---3---|-3---3-3-3-3-3-3-|-5---5-5-5-5-5-5-||
E-0---0---0---0-0-|-1-1-1---1---1-0-|-----------------|-3---3-3-3-3-3-3-||
Guitar 2				 	        ||   X2
e-----------------|-----------------|-----------------|-----------------||
b-----------------|-----------------|-----------------|-----------------||
g-5---5-5-5-5-5-5-|-5---5-5-5-5-5-5-|-5---5-5-5-5-5-5-|-7---7-7-7-7-7-7-||
d-x---x-x-x-x-x-x-|-x---x-x-x-x-x-x-|-x---x-x-x-x-x-x-|-x---x-x-x-x-x-x-||
a-3---3-3-3-3-3-3-|-3---3-3-3-3-3-3-|-3---3-3-3-3-3-3-|-5---5-5-5-5-5-5-||
E-----------------|-----------------|-----------------|-----------------||


e-----------------|-----------------|-----------------||
b-----------------|-----------------|-----------------||
g-----------------|-----------------|-----------------||
d-2---2-2-2-2-2-2-|-----------------|-5-5-5-5-5-5-5-5-||
a-0---0-0-0-0-0-0-|-3-3-3-3-3-3-3-3-|-3-3-3-3-3-3-3-3-||
E-----------------|-1-1-1-1-1-1-1-1-|-----------------||
Pm.   . . . . . .   . . . . . . . .   . . . . . . . . ||
e-----------------|-----------------|-----------------||
b-----------------|-----------------|-----------------||
g-5---5-5-5-5-5-5-|-5---5-5-5-5-5-5-|-5---5-5-5-5-5-5-||
d-x---x-x-x-x-x-x-|-x---x-x-x-x-x-x-|-x---x-x-x-x-x-x-||
a-3---3-3-3-3-3-3-|-3---3-3-3-3-3-3-|-3---3-3-3-3-3-3-||
E-----------------|-----------------|-----------------||


e-----------------|-----------------|-----------------||
b-----------------|-----------------|-----------------||
g-----------------|-----------------|-----------------||
d-----------------|-2-2-2-2-2-2-2---|-----------------||
a-5-5-5-5-5-5-5-5-|-0-0-0-0-0-0-0---|-3---------------||
E-3-3-3-3-3-3-3-3-|---------------0-|-1---------------||
PM. . . . . . . .   . . . . . . . .	 	   ||
e-----------------|-----------------|-----------------||
b-----------------|-----------------|-----------------||
g-5---5-5-5-5-5-5-|-5---5-5-5-5-5-5-|-----------------||
d-x---x-x-x-x-x-x-|-x---x-x-x-x-x-x-|-----------------||
a-3---3-3-3-3-3-3-|-3---3-3-3-3-3-3-|-----------------||
E-----------------|-----------------|-----------------||

*Repeat Interlude*

*Repeat Verse*

*Repeat Bass Arranged For Guitar*

*Repeat Chorus*

Bridge
e-----|----|----|----|----|----|----|----||
b-----|----|----|----|----|----|----|----||
g-5~--|----|----|----|----|----|----|----||
d-x---|----|----|----|----|----|----|----||
a-3~--|----|----|----|----|----|----|----||
E-----|----|----|----|----|----|----|----||

e-----------------|-----------------|-----------------|-----------------||
b-----------------|-----------------|-----------------|-----------------||
g-5---5-5-5-5-5-5-|-5-5-5-5-5-5-5-5-|-5-5-5-5-5-5-5-5-|-5-5-5-5-5-5-5-5-||
d-5---5-5-5-5-5-5-|-5-5-5-5-5-5-5-5-|-5-5-5-5-5-5-5-5-|-5-5-5-5-5-5-5-5-||
a-----------------|-----------------|-----------------|-----------------||
E-----------------|-----------------|-----------------|-----------------||

e-----------------|-----------------|-----------------|-----------------||
b-----------------|-----------------|-----------------|-----------------||
g-5-5-5-5-5-5-5-5-|-5-5-5-5-5-5-5-5-|-5-5-5-5-5-5-5-5-|-5---------------||
d-5-5-5-5-5-5-5-5-|-5-5-5-5-5-5-5-5-|-5-5-5-5-5-5-5-5-|-5---------------||
a-----------------|-----------------|-----------------|-----------------||
E-----------------|-----------------|-----------------|-----------------||

*Repeat chorus*

Outro 
guitar one
e-----------------|-----------------|-----------------|-----------------||
b-----------------|-----------------|-----------------|-----------------||
g-----------------|-----------------|-----------------|-----------------||
d-----0h3-----2---|-----0h3-----2---|-----0h3-----2---|-----0-----0-----|| X 3 1/4
a-3-3-----3-3-----|-3-3-----3-3-----|-3-3-----3-3-----|-3-3---3-3-------||
E-----------------|-----------------|-----------------|-----------------||
PM. .     . .       . .     . .       . .     . .       . .   . .	


(Come in after second time) 
guitar two
e---------|---------|---------|---------||
b-8---8---|-6---6---|-5---5---|-6---6---||
g---5---5-|---5---5-|---5---5-|---5---5-||
d---------|---------|---------|---------|| X1 3/4
a---------|---------|---------|---------||
E---------|---------|---------|---------||
	
 End On				 
e--------||
b(6)-----||
g--------||
d-3------||
a-3------||
E-1------||





Comments


Popular Blink tabs & chords
Enthused Tabs
Heres Your Letter Tabs
Heres Your Letter 1 Tabs
Obvious 100% Tabs
Sometimes Tabs
The Country Song Tabs
The Girl Next Door Tabs
Violence 1 Tabs
Waggy 1 Tabs
What Went Wrong Tabs


Song lyrics



↑ Back to top | Tablatures and chords are parodies/interpretations of the original songs. You may use it for private study, scholarship, research or language learning purposes only
© 2014 AZChords.com Contact us | Privacy policy | DMCA | Add/correct tabs | Request tabs | Top 50 tabs