» » »

Blink, All The Small Things Tabs (ver.3)

Artists:  A B C D E F G H I J K L M N O P Q R S T U V W X Y Z # 

All The Small Things Tabs (ver.3)

Blink Tabs
Rating:
0/5 (0 votes)
All The Small Things lessons Tabs too difficult? Try these video lessons and learn fast
                Tuning: Standard

Tis is the way they play it LIVE.

Intro x2
e|-------------------------------------------------------------------------------|
B|--------------------------6-6-6-6-6-6-6-6--------------------------------------|
G|----------5-5-5-5-5-5-5-5-5-5-5-5-5-5-5-5--------------------------------------|
D|--5-3-----5-5-5-5-5-5-5-5-3-3-3-3-3-3-3-3-5-5-5-5-5-5-5-5--------------3-3-3---|
A|--5-3-----3-3-3-3-3-3-3-3-----------------5-5-5-5-5-5-5-5--0--0--0--0--3-3-3---|
E|--3-1-------------------------------------3-3-3-3-3-3-3-3--------------1-1-1---|
                                                             .  .  .  .
Verse x4
e|-------------------------------------------------------------------------------|
B|-------------------------------------------------------------------------------|
G|-------------------------------------------------------------------------------|
D|--5-5-5-5-5-5-5-5--------------------------------------------------------------|
A|--3-3-3-3-3-3-3-3--5-5-5-5-5-5-5-5--3-3-3-3-3-3-3-3--5-5-5-5-5-5-5-5-----------|
E|-------------------3-3-3-3-3-3-3-3--1-1-1-1-1-1-1-1--3-3-3-3-3-3-3-3-----------|
    . . . . . . . .  . . . . . . . .  . . . . . . . .  . . . . . . . . 

Pre-Chorus x1
e|-------------------------------------------------------------------------------|
B|-------------------------------------------------------------------------------|
G|--5-5--5~----------------------------------------------------------------------|
D|--5-5--5~----------------------------------------------------------------------|
A|--3-3--3~----------------------------------------------------------------------|
E|-------------------------------------------------------------------------------|

Chorus x2
e|-------------------------------------------------------------------------------|
B|-------------------------------------------------------------------------------|
G|--5-5-5-5-5-5-5-5-5-5-5-5-5-5-5-5-5--------------------------------------------|
D|--5-5-5-5-5-5-5-5-5-5-5-5-5-5-5-5-5--5-5-5-5-5-5-5-5-5--3-3-3-3-3-3-3-3-3------|
A|--3-3-3-3-3-3-3-3-3-3-3-3-3-3-3-3-3--5-5-5-5-5-5-5-5-5--3-3-3-3-3-3-3-3-3------|
E|-------------------------------------3-3-3-3-3-3-3-3-3--1-1-1-1-1-1-1-1-1------|

Interlude x2
e|-------------------------------------------------------------------------------|
B|-------------------------------------------------------------------------------|
G|--5-5-5-5-5-5-5-5-10-10-10-10-9-9-9-9-7-7-7-7-7-7-7-7--7--------------3-3-3----|
D|--X-X-X-X-X-X-X-X--X--X--X--X-X-X-X-X-X-X-X-X-X-X-X-X--X--------------X-X-X----|
A|--3-3-3-3-3-3-3-3--8--8--8--8-7-7-7-7-5-5-5-5-5-5-5-5--5--0--0--0--0--1-1-1----|
E|-------------------------------------------------------------------------------|
                                                            .  .  .  .
Play Verse x2

Play Chorus x2

Bridge Part 1 x1
e|-------------------------------------------------------------------------------|
B|-------6~---8~-----------------------------------------------------------------|
G|--5~---5~---7~-----------------------------------------------------------------|
D|--5~---3~---5~-----------------------------------------------------------------|
A|--3~---------------------------------------------------------------------------|
E|-------------------------------------------------------------------------------|

Part 2 x3
e|-------------------------------------------------------------------------------|
B|-------------------------------------------------------------------------------|
G|--5---5---5---5---5---5---5---5---5---5---5---5---4---4---4---4----------------|
D|----5---5---5---5---5---5---5---5---5---5---5---5---5---5---5---5--------------|
A|-------------------------------------------------------------------------------|
E|-------------------------------------------------------------------------------|
    . . . . . . . . . . . . . . . . . . . . . . . . . . . . . . . .

Play Chorus x2

Outro x2
e|-------------------------------------------------------------------------------
B|-------------------------------------------------------------------------------
G|--5-5-5-5-5-5-5-5-5-5-5-5-5-5-5-5-5--------------------------------------------
D|--5-5-5-5-5-5-5-5-5-5-5-5-5-5-5-5-5--5-5-5-5-5-5-5-5-5------3------3-----------
A|--3-3-3-3-3-3-3-3-3-3-3-3-3-3-3-3-3--5-5-5-5-5-5-5-5-5------3------3-----------
E|-------------------------------------3-3-3-3-3-3-3-3-3--1-1-1--1-1-1-----------
                                                          . .    . .
x1
e|-------------------------------------------------------------------------------|
B|-------------------------------------------------------------------------------|
G|----------------5~-------------------------------------------------------------|
D|------3------3--5~-------------------------------------------------------------|
A|------3------3--3~-------------------------------------------------------------|
E|--1-1-1--1-1-1-----------------------------------------------------------------|
    . .    . .
            

comments powered by Disqus
↑ Back to top | Blink Tabs for All The Small Things. Lyrics for acoustic guitar and electric guitar. Tablatures and chords are parodies/interpretations of the original songs. You may use it for private study, scholarship, research or language learning purposes only