» » »

Blink, All The Small Things Tabs (ver.2)

Artists:  A B C D E F G H I J K L M N O P Q R S T U V W X Y Z # 

All The Small Things Tabs (ver.2)

Blink Tabs
Rating:
0/5 (0 votes)
All The Small Things lessons Tabs too difficult? Try these video lessons and learn fast
                STANDARD TUNING

 INTRO                X2
e-----------------------------------------------------------------
B----------------6666666666---------------------------------------
G-----5555555555-5555555555---------------------------------------
D-5-3-5555555555-33333333335555555555-77777777-33-----------------
A-5-3-3333333333-----------5555555555-77777777-33-----------------
E-3-1----------------------3333333333-55555555-11-----------------
                                      \..p.m./ 

 VERSE p.m            X4
e-----------------------------------------------------------------
B-----------------------------------------------------------------
G-----------------------------------------------------------------
D-555555----------------------------------------------------------
A-333333-555555-333333-555555-------------------------------------
E--------333333-111111-333333-------------------------------------


 PRE-CHORUS
e-----------------------------------------------------------------
B-----------------------------------------------------------------
G-5---------------------------------------------------------------
D-5---------------------------------------------------------------
A-3---------------------------------------------------------------
E-----------------------------------------------------------------


 CHORUS               x2
e-----------------------------------------------------------------
B-----------------------------------------------------------------
G-5555555555555555------------------------------------------------
D-5555555555555555-5555555555-3333333333--------------------------
A-3333333333333333-5555555555-3333333333--------------------------
E------------------3333333333-1111111111--------------------------


 BRIDGE               X2
e-----------------------------------------------------------------
B----------666666-555555-3333333333-------------------------------
G-55555555-555555-444444-2222222222-------------------------------
D-55555555-333333-222222-0000000000-77777777-33-------------------
A-33333333--------------------------77777777-33-------------------
E-----------------------------------55555555-11-------------------
                                    \..p.m./

 VERSE p.m X2

 CHORUS X2


 INTERLUDE p.m
e----------------------------------------------------------------
B----------------------------------------------------------------
G-5-5-5-5-5-5-5-4-4-4-4-4-4--------------------------------------
D--5-5-5-5-5-5-5-5-5-5-5-5-5-------------------------------------
A----------------------------------------------------------------
E----------------------------------------------------------------

 CHORUS X2

 ENDING               X2
e----------------------------------------------------------------
B----------------------------------------------------------------
G-55555555555555555----------------------------------------------
D-55555555555555555-555555555-XX-3-XX-3--------------------------
A-33333333333333333-555555555-XX-3-XX-3--------------------------
E-------------------333333333-XX-1-XX-1--------------------------

e----------------------------------------------------------------
B----------------------------------------------------------------
G-5--------------------------------------------------------------
D-5--------------------------------------------------------------
A-3--------------------------------------------------------------
E----------------------------------------------------------------


 THIS TAB IS 100% PERFECT
            

comments powered by Disqus
↑ Back to top | Blink Tabs for All The Small Things. Lyrics for acoustic guitar and electric guitar. Tablatures and chords are parodies/interpretations of the original songs. You may use it for private study, scholarship, research or language learning purposes only