» » »

Blink, All Of This Tabs (ver.3)

Artists:  A B C D E F G H I J K L M N O P Q R S T U V W X Y Z # 

All Of This Tabs (ver.3)

Blink Tabs
 Rating:
4/5 (4 votes)
All Of This lessons Tabs too difficult? Try these video lessons and learn fast
                Blink 182
all of this
this song kicks ass
Intro:
e|---------------------------------------------------
B|---------------------------------------------------
G|---------------------------------------------------
D|--4/6/7\9/7--7/9/11-11/12\9-9---4/6/7\9/7--7~------ x2
A|--x-x-x-x-x--x-x-x--x--x--x-x---x-x-x-x-x--x~------
E|--2/4/5\7/5--5/7/9--9/10-\7-7---2/4/5\7/5--5~------
    ^          ^      ^       ^   ^  hit the first note then slide
Verse:
e|---------------------------------------------------
B|---------------------------------------------------
G|--6666666666666666--444--666-----------------------
D|--xxxxxxxxxxxxxxxx--xxx--xxx--7~------------------- x2
A|--4444444444444444--222--444--x--------------------
E|------------------------------5~-------------------

Chorus:
e|---------------------------------------------
B|---------------------------------------------
G|---------------------------------------------
D|--444444444444--2222--7777777777777777-9999-- x2
A|--xxxxxxxxxxxx--2222--xxxxxxxxxxxxxxxx-xxxx--
E|--222222222222--0000--5555555555555555-7777--

Intro:
e|--------------------------------------------------------
B|--------------------------------------------------------
G|--------------------------------------------------------
D|--4/6/7/9/7--7/9/11-11/12\9-9--4/6/7\9/7--7~------------ x2
A|--x-x-x-x-x--x-x-x--x--x--x-x--x-x-x-x-x--x~------------
E|--2/4/5/7/5--5/7/9--9/10-\7-7--2/4/5\7/5--5~------------
    ^          ^      ^       ^  ^  
Verse  
e|---------------------------------------------------
B|---------------------------------------------------
G|--6666666666666666--444--666-----------------------
D|--xxxxxxxxxxxxxxxx--xxx--xxx--7~------------------- x2 guitar doesnt come in right 
A|--4444444444444444--222--444--x--------------------    away
E|------------------------------5~-------------------

Chorus:
e|---------------------------------------------
B|---------------------------------------------
G|---------------------------------------------
D|--444444444444--2222--7777777777777777-9999-- x2
A|--xxxxxxxxxxxx--2222--xxxxxxxxxxxxxxxx-xxxx--
E|--222222222222--0000--5555555555555555-7777--

e|-----------------------------------------------
B|-----------------------------------------------
G|-----------------------------------------------
D|--4/6/7\9/7--7/9/11-11/12\9-9------------------ x4
A|--x-x-x-x-x--x-x-x--x--x--x-x------------------
E|--2/4/5\7/5--5/7/9--9/10-\7-7------------------

Bridge: x4
e|----------------------------------------------------
B|----------------------------------------------------
G|---2---2---2---2----11----2---2---2---2----2-2-------
D|--------------------22------------------------------
A|------------------------00--00--00--00--00-----------
E|-22--22--22--22--22-----------------------------------

e|----------------------------------------------------
B|----------------------------------------------------
G|---2---2---2---2----11----2---2---2---2----2/4-4------
D|--------------------22------------------------------
A|------------------------00--00--00--00--00-----------
E|-22-22--22--22--22-----------------------------------
            
Submit corrections

comments powered by Disqus
↑ Back to top | Blink Tabs for All Of This. Lyrics for acoustic guitar and electric guitar. Tablatures and chords are parodies/interpretations of the original songs. You may use it for private study, scholarship, research or language learning purposes only