» » »

All Of This Tabs (ver.1)

Artists:  A B C D E F G H I J K L M N O P Q R S T U V W X Y Z # 

All Of This Tabs (ver.1)

Blink
Rating:
0/5 (0 votes)

Hard to play? Try these video lessons and learn fast.
                Intro
e ---------------------------
B ---------------------------
G ---------------------------
D -4-6-7-9-7-7-9-11-11-129-9-
A -x-x-x-x-x-x-x-x--x--x-x-x-
E -2/4/5/7/5-5/7/9--9/10/7-7-

e ---------------------------
B ---------------------------
G ---------------------------
D -4-6-7-9-7--7--------------
A -x-x-x-x-x--x--------------
E -2/4/5/7/5--5--------------

Verse
e ---------------------------
B ---------------------------
G -6------4-----6-----2------
D -x------x-x3--x-x3--x------
A -4-x15--2-----4-----0------
E -5-------------------------

Chorus
e ---------------------------
B ---------------------------
G ---------------------------
D --4------2------7----------
A --x-x12--x-x4---x-x16------
E --2------0------5----------

Bridge
e ---------------------------
B ---------------------------
G ---------------------------
D -7-7-7-------7-7-7-6-6-----
A -------11-11---------------
E ---------------------------

Order:

Intro
Verse
Chorus
Intro
Verse (guitar comes a bit after)
Chorus
Intro
Bridge
Chorus
Intro
Verse (guitar without lyrics, and it stop when he start singing)
It end without guitar
            
Hard to play? Try these video lessons and learn fast. | Correct




comments powered by Disqus
↑ Back to top | Tablatures and chords are parodies/interpretations of the original songs. You may use it for private study, scholarship, research or language learning purposes only