» » »

Blink, Adams Song Tabs (ver.2)

Artists:  A B C D E F G H I J K L M N O P Q R S T U V W X Y Z # 

Adams Song Tabs (ver.2)

Blink Tabs
 Rating:
4/5 (4 votes)
Adams Song lessons Tabs too difficult? Try these video lessons and learn fast
1
                Adams Song
Guitar One Whole step down,
strings low to high: D,g,c,f,a,d

Intro
e---------------|---------------|---------------|---------------||
b---------------|---------------|---------------|---------------||
g---------------|---------------|---------------|---------------||
d---4-0----4-0--|---4-0----4-0--|---4-0----4-0--|---4-0----4-0--|| X2
a-2------2------|-0------0------|---------------|---------------||
E---------------|---------------|-3------3------|-0------3------||

Verse
e----------|----------|----------|----------||
b----------|----------|----------|----------||
g----------|----------|----------|----------||
d-44444444-|----------|-44444444-|----------|| X4
a-55555555-|-55555555-|-22222222-|-55555555-||
E----------|-33333333-|----------|-33333333-||
PM........   ........   ........   ........
After Verse
e---------------|---------------|---------------|---------------||
b---------------|---------------|---------------|---------------||
g-----0------0--|-----0------0--|---------------|---------------||
d---7------7----|---9------9----|---4-0----4-0--|---4-0----4-0--|| X2
a-5------5------|-7------7------|-2------2------|---------------||
E---------------|---------------|---------------|-3------3------||

Pre Chorus
e----------|----------|----------|----------||
b----------|----------|----------|----------||
g-77777777-|-99999999-|-44444444-|----------||
d-xxxxxxxx-|-xxxxxxxx-|-xxxxxxxx-|-55555555-|| X2
a-55555555-|-77777777-|-22222222-|-xxxxxxxx-||
E----------|----------|----------|-33333333-||

Chrous
e----------|----------|----------|----------||
b----------|----------|----------|----------||
g-77777777-|-99999999-|-44444444-|----------||
d-77777777-|-99999999-|-44444444-|-55555555-|| X4
a-55555555-|-77777777-|-22222222-|-55555555-||
E----------|----------|----------|-33333333-||

*Repeat All*

Bridge
e-------------------||
b-------------------||
g---0-----0-----0---||
d-4-----4-----4-----|| Repeat as nesecary
a-----5-----5-----5-||
E-------------------||

Outro
e----------|----------|----------|----------||
b----------|----------|----------|----------||
g-77777777-|-99999999-|-44444444-|----------||
d-77777777-|-99999999-|-44444444-|-55555555-|| X6
a-55555555-|-77777777-|-22222222-|-55555555-||
E----------|----------|----------|-33333333-||

End
e--------------||
b--------------||
g-7~-----------||
d-7~-----------||
a-5~-----------||
E--------------||
            
Submit corrections

comments powered by Disqus
↑ Back to top | Blink Tabs for Adams Song. Lyrics for acoustic guitar and electric guitar. 1 Tablatures and chords are parodies/interpretations of the original songs. You may use it for private study, scholarship, research or language learning purposes only