>
 >
Adams Song 2

Adams Song 2 Guitar Tabs

Blink - Adams Song 2 chords, tabs, tablatures, lyrics

Guitar lessons | Add/correct | Request | Top 50 tabs Artists:  A B C D E F G H I J K L M N O P Q R S T U V W X Y Z 0-9

Adams Song 2 Guitar Tabs – Blink

CD, Sheet music, Poster

Do you like Adams Song 2? Share with your friends now
TabsTabs v2Tabs v3
Riff: (0:00)

E|----------------|----------------|----------------|----------------|
B|----------------|----------------|----------------|----------------|
G|----------------|----------------|----------------|----------------| 2x
D|--4-0-----4-0---|--4-0-----4-0---|--4-0-----4-0---|--4-0-----4-0---|
A|2-------2-------|0-------0-------|----------------|----------------|
E|----------------|----------------|3-------3-------|0-------3-------|

Verse (Palm Muted): (0:14)

E|----------------|----------------|----------------|----------------|
B|----------------|----------------|----------------|----------------|
G|----------------|----------------|----------------|----------------| 4x
D|7-7-7-7-7-7-7-7-|----------------|4-4-4-4-4-4-4-4-|----------------|
A|5-5-5-5-5-5-5-5-|5-5-5-5-5-5-5-5-|2-2-2-2-2-2-2-2-|5-5-5-5-5-5-5-5-|
E|----------------|3-3-3-3-3-3-3-3-|----------------|3-3-3-3-3-3-3-3-|

Riff 2: (0:42)

E|----------------|----------------|----------------|----------------|
B|----------------|----------------|----------------|----------------|
G|----0-------0---|----0-------0---|----------------|----------------| 2x
D|--7-------7-----|--9-------9-----|--4-0-----4-0---|--4-0-----4-0---|
A|5-------5-------|7-------7-------|2-------2-------|----------------|
E|----------------|----------------|----------------|3-------3-------|

Pre-Chorus (Clean): (0:56)

E|----------------|----------------|----------------|----------------|
B|----------------|----------------|----------------|----------------|
G|----------------|----------------|----------------|----------------|
D|7-7-7-7-7-7-7-7-|9-9-9-9-9-9-9-9-|4-4-4-4-4-4-4-4-|----------------|
A|5-5-5-5-5-5-5-5-|7-7-7-7-7-7-7-7-|2-2-2-2-2-2-2-2-|5-5-5-5-5-5-5-5-|
E|----------------|----------------|----------------|3-3-3-3-3-3-3-3-|

E|----------------|----------------|----------------|----------------|
B|----------------|----------------|----------------|----------------|
G|1111111111111111|1212121212121212|1111111111111111|1212121212121212|
D|0-0-0-0-0-0-0-0-|0-0-0-0-0-0-0-0-|0-0-0-0-0-0-0-0-|0-0-0-0-0-0-0-0-|
A|9-9-9-9-9-9-9-9-|1010101010101010|9-9-9-9-9-9-9-9-|1010101010101010|
E|----------------|----------------|----------------|----------------|

Chorus (Distortion): (1:10)

E|----------------|----------------|----------------|----------------|
B|----------------|----------------|----------------|----------------|
G|7-7-7-7-7-7-7-7-|9-9-9-9-9-9-9-9-|4-4-4-4-4-4-4-4-|----------------| 2x
D|7-7-7-7-7-7-7-7-|9-9-9-9-9-9-9-9-|4-4-4-4-4-4-4-4-|5-5-5-5-5-5-5-5-|
A|5-5-5-5-5-5-5-5-|7-7-7-7-7-7-7-7-|2-2-2-2-2-2-2-2-|5-5-5-5-5-5-5-5-|
E|----------------|----------------|----------------|3-3-3-3-3-3-3-3-|

Riff 3: (1:24)

E|----------------|----------------|----------------|----------------|
B|----------------|----------------|----------------|----------------|
G|----------------|----------------|----------------|----------------| 2x
D|--4-0-----4-0---|--4-0-----4-0---|--4-0-----4-0---|--4-0-----4-0---|
A|2-------2-------|0-------0-------|----------------|----------------|
E|----------------|----------------|3-------3-------|0-------3-------|

Verse 2 (Palm Muted): (1:38)

E|----------------|----------------|----------------|----------------|
B|----------------|----------------|----------------|----------------|
G|----------------|----------------|----------------|----------------| 4x
D|7-7-7-7-7-7-7-7-|----------------|4-4-4-4-4-4-4-4-|----------------|
A|5-5-5-5-5-5-5-5-|5-5-5-5-5-5-5-5-|2-2-2-2-2-2-2-2-|5-5-5-5-5-5-5-5-|
E|----------------|3-3-3-3-3-3-3-3-|----------------|3-3-3-3-3-3-3-3-|

Riff 4: (2:06)

E|----------------|----------------|----------------|----------------|
B|----------------|----------------|----------------|----------------|
G|----0-------0---|----0-------0---|----------------|----------------| 2x
D|--7-------7-----|--9-------9-----|--4-0-----4-0---|--2-0-----2-0---|
A|5-------5-------|7-------7-------|2-------2-------|----------------|
E|----------------|----------------|----------------|3-------3-------|

Pre-Chorus 2 (Clean): (2:21)

E|----------------|----------------|----------------|----------------|
B|----------------|----------------|----------------|----------------|
G|----------------|----------------|----------------|----------------|
D|7-7-7-7-7-7-7-7-|9-9-9-9-9-9-9-9-|4-4-4-4-4-4-4-4-|----------------|
A|5-5-5-5-5-5-5-5-|7-7-7-7-7-7-7-7-|2-2-2-2-2-2-2-2-|5-5-5-5-5-5-5-5-|
E|----------------|----------------|----------------|3-3-3-3-3-3-3-3-|

E|----------------|----------------|----------------|----------------|
B|----------------|----------------|----------------|----------------|
G|1111111111111111|1212121212121212|1111111111111111|1212121212121212|
D|0-0-0-0-0-0-0-0-|0-0-0-0-0-0-0-0-|0-0-0-0-0-0-0-0-|0-0-0-0-0-0-0-0-|
A|9-9-9-9-9-9-9-9-|1010101010101010|9-9-9-9-9-9-9-9-|1010101010101010|
E|----------------|----------------|----------------|----------------|

Chorus 2 (Distortion): (2:35)

E|----------------|----------------|----------------|----------------|
B|----------------|----------------|----------------|----------------|
G|7-7-7-7-7-7-7-7-|9-9-9-9-9-9-9-9-|4-4-4-4-4-4-4-4-|----------------| 2x
D|7-7-7-7-7-7-7-7-|9-9-9-9-9-9-9-9-|4-4-4-4-4-4-4-4-|5-5-5-5-5-5-5-5-|
A|5-5-5-5-5-5-5-5-|7-7-7-7-7-7-7-7-|2-2-2-2-2-2-2-2-|5-5-5-5-5-5-5-5-|
E|----------------|----------------|----------------|3-3-3-3-3-3-3-3-|

Interlude: (2:49)

                                   |---------------3x----------------|
E|----------------|----------------|----------------|----------------|
B|----------------|----------------|----------------|----------------|
G|7---------------|----------------|----------------|----------------|
D|7---------------|----------------|----------------|----------------|
A|5---------------|----------------|----------------|----------------|
E|----------------|----------------|----------------|----------------|

Interlude Continued: (3:03)

E|----------------|----------------|----------------|----------------|
B|----------------|----------------|----------------|----------------|
G|----0-----0-----|0-----0-----0---|----0-----0-----|0-----0-----0---| 2x
D|--4-----4-----4-|----4-----4-----|--4-----4-----4-|----4-----4-----|
A|5-----5-----5---|--5-----5-------|5-----5-----5---|--5-----5-------|
E|----------------|----------------|----------------|----------------|

Interlude Continued 2: (3:17)

E|----------------|----------------|----------------|----------------|
B|----------------|----------------|----------------|----------------|
G|----7-----7-----|7-----7-----7---|----7-----7-----|7-----7-----7---| 2x
D|--4-----4-----4-|----4-----4-----|--4-----4-----4-|----4-----4-----|
A|5-----5-----5---|--5-----5-------|5-----5-----5---|--5-----5-------|
E|----------------|----------------|----------------|----------------|

Outro (Distortion): (3:31)

E|----------------|----------------|----------------|----------------|
B|----------------|----------------|----------------|----------------|
G|7-7-7-7-7-7-7-7-|9-9-9-9-9-9-9-9-|4-4-4-4-4-4-4-4-|----------------| 4x
D|7-7-7-7-7-7-7-7-|9-9-9-9-9-9-9-9-|4-4-4-4-4-4-4-4-|5-5-5-5-5-5-5-5-|
A|5-5-5-5-5-5-5-5-|7-7-7-7-7-7-7-7-|2-2-2-2-2-2-2-2-|5-5-5-5-5-5-5-5-|
E|----------------|----------------|----------------|3-3-3-3-3-3-3-3-|

E|----------------|
B|----------------|
G|7~~~~~~~~~~~~~~~|
D|7~~~~~~~~~~~~~~~|
A|5~~~~~~~~~~~~~~~|
E|----------------|


By Adolfo (Plastick)





Comments


Popular Blink tabs & chords
100% What Went Wrong Tabs
All Of This 1 Tabs
Always 1 Tabs
Boring 1 Tabs
Dysentary Gary Tabs
Easy Target 2 Tabs
M Ms Tabs
M+Ms 1 Tabs
Violence Tabs
Violence 1 Tabs


Song lyrics



↑ Back to top | Tablatures and chords are parodies/interpretations of the original songs. You may use it for private study, scholarship, research or language learning purposes only
© 2014 AZChords.com Contact us | Privacy policy | DMCA | Add/correct tabs | Request tabs | Top 50 tabs